  0
SECTION
  2
HEADER
  9
$ACADVER
  1
AC1009
  9
$EXTMIN
 10
0.0
 20
0.0
 30
0.0
  9
$EXTMAX
 10
1000.0
 20
1000.0
 30
0.0
  9
$FILLMODE
 70
 0
  9
$SPLFRAME
 70
 1
  0
ENDSEC
  0
SECTION
  2
TABLES
  0
TABLE
  2
LAYER
 70
1
  0
LAYER
  2
0
 70
     0
 62
     7
  6
CONTINUOUS
  0
ENDTAB
  0
ENDSEC
  0
SECTION
  2
ENTITIES
  0
LINE
  8
0
 62
     0
 10
403.204
 20
792.18
 30
0.0
 11
398.388
 21
792.18
 31
0.0
  0
LINE
  8
0
 62
     0
 10
398.388
 20
792.18
 30
0.0
 11
383.939
 21
791.707
 31
0.0
  0
LINE
  8
0
 62
     0
 10
383.939
 20
791.707
 30
0.0
 11
364.804
 21
790.286
 31
0.0
  0
LINE
  8
0
 62
     0
 10
364.804
 20
790.286
 30
0.0
 11
345.83
 21
787.933
 31
0.0
  0
LINE
  8
0
 62
     0
 10
345.83
 20
787.933
 30
0.0
 11
327.051
 21
784.659
 31
0.0
  0
LINE
  8
0
 62
     0
 10
327.051
 20
784.659
 30
0.0
 11
308.5
 21
780.482
 31
0.0
  0
LINE
  8
0
 62
     0
 10
308.5
 20
780.482
 30
0.0
 11
290.205
 21
775.416
 31
0.0
  0
LINE
  8
0
 62
     0
 10
290.205
 20
775.416
 30
0.0
 11
272.203
 21
769.468
 31
0.0
  0
LINE
  8
0
 62
     0
 10
272.203
 20
769.468
 30
0.0
 11
254.52
 21
762.656
 31
0.0
  0
LINE
  8
0
 62
     0
 10
254.52
 20
762.656
 30
0.0
 11
237.192
 21
754.99
 31
0.0
  0
LINE
  8
0
 62
     0
 10
237.192
 20
754.99
 30
0.0
 11
220.249
 21
746.485
 31
0.0
  0
LINE
  8
0
 62
     0
 10
220.249
 20
746.485
 30
0.0
 11
203.724
 21
737.154
 31
0.0
  0
LINE
  8
0
 62
     0
 10
203.724
 20
737.154
 30
0.0
 11
187.647
 21
727.012
 31
0.0
  0
LINE
  8
0
 62
     0
 10
187.647
 20
727.012
 30
0.0
 11
172.052
 21
716.065
 31
0.0
  0
LINE
  8
0
 62
     0
 10
172.052
 20
716.065
 30
0.0
 11
156.971
 21
704.335
 31
0.0
  0
LINE
  8
0
 62
     0
 10
156.971
 20
704.335
 30
0.0
 11
142.433
 21
691.832
 31
0.0
  0
LINE
  8
0
 62
     0
 10
142.433
 20
691.832
 30
0.0
 11
131.878
 21
681.969
 31
0.0
  0
LINE
  8
0
 62
     0
 10
131.878
 20
681.969
 30
0.0
 11
128.473
 21
678.568
 31
0.0
  0
LINE
  8
0
 62
     0
 10
128.473
 20
678.568
 30
0.0
 11
125.067
 21
675.167
 31
0.0
  0
LINE
  8
0
 62
     0
 10
125.067
 20
675.167
 30
0.0
 11
115.188
 21
664.63
 31
0.0
  0
LINE
  8
0
 62
     0
 10
115.188
 20
664.63
 30
0.0
 11
102.663
 21
650.113
 31
0.0
  0
LINE
  8
0
 62
     0
 10
102.663
 20
650.113
 30
0.0
 11
90.9133
 21
635.056
 31
0.0
  0
LINE
  8
0
 62
     0
 10
90.9133
 20
635.056
 30
0.0
 11
79.9525
 21
619.485
 31
0.0
  0
LINE
  8
0
 62
     0
 10
79.9525
 20
619.485
 30
0.0
 11
69.7921
 21
603.437
 31
0.0
  0
LINE
  8
0
 62
     0
 10
69.7921
 20
603.437
 30
0.0
 11
60.4464
 21
586.938
 31
0.0
  0
LINE
  8
0
 62
     0
 10
60.4464
 20
586.938
 30
0.0
 11
51.9271
 21
570.022
 31
0.0
  0
LINE
  8
0
 62
     0
 10
51.9271
 20
570.022
 30
0.0
 11
44.2503
 21
552.722
 31
0.0
  0
LINE
  8
0
 62
     0
 10
44.2503
 20
552.722
 30
0.0
 11
37.4262
 21
535.069
 31
0.0
  0
LINE
  8
0
 62
     0
 10
37.4262
 20
535.069
 30
0.0
 11
31.4689
 21
517.091
 31
0.0
  0
LINE
  8
0
 62
     0
 10
31.4689
 20
517.091
 30
0.0
 11
26.3922
 21
498.828
 31
0.0
  0
LINE
  8
0
 62
     0
 10
26.3922
 20
498.828
 30
0.0
 11
22.2098
 21
480.307
 31
0.0
  0
LINE
  8
0
 62
     0
 10
22.2098
 20
480.307
 30
0.0
 11
18.9329
 21
461.557
 31
0.0
  0
LINE
  8
0
 62
     0
 10
18.9329
 20
461.557
 30
0.0
 11
16.5764
 21
442.616
 31
0.0
  0
LINE
  8
0
 62
     0
 10
16.5764
 20
442.616
 30
0.0
 11
15.1529
 21
423.51
 31
0.0
  0
LINE
  8
0
 62
     0
 10
15.1529
 20
423.51
 30
0.0
 11
14.6761
 21
409.085
 31
0.0
  0
LINE
  8
0
 62
     0
 10
14.6761
 20
409.085
 30
0.0
 11
14.6761
 21
404.276
 31
0.0
  0
LINE
  8
0
 62
     0
 10
14.6761
 20
404.276
 30
0.0
 11
14.6761
 21
399.468
 31
0.0
  0
LINE
  8
0
 62
     0
 10
14.6761
 20
399.468
 30
0.0
 11
15.1529
 21
385.039
 31
0.0
  0
LINE
  8
0
 62
     0
 10
15.1529
 20
385.039
 30
0.0
 11
16.5764
 21
365.936
 31
0.0
  0
LINE
  8
0
 62
     0
 10
16.5764
 20
365.936
 30
0.0
 11
18.9329
 21
346.994
 31
0.0
  0
LINE
  8
0
 62
     0
 10
18.9329
 20
346.994
 30
0.0
 11
22.2098
 21
328.246
 31
0.0
  0
LINE
  8
0
 62
     0
 10
22.2098
 20
328.246
 30
0.0
 11
26.3922
 21
309.724
 31
0.0
  0
LINE
  8
0
 62
     0
 10
26.3922
 20
309.724
 30
0.0
 11
31.4689
 21
291.459
 31
0.0
  0
LINE
  8
0
 62
     0
 10
31.4689
 20
291.459
 30
0.0
 11
37.4262
 21
273.484
 31
0.0
  0
LINE
  8
0
 62
     0
 10
37.4262
 20
273.484
 30
0.0
 11
44.2503
 21
255.83
 31
0.0
  0
LINE
  8
0
 62
     0
 10
44.2503
 20
255.83
 30
0.0
 11
51.9271
 21
238.53
 31
0.0
  0
LINE
  8
0
 62
     0
 10
51.9271
 20
238.53
 30
0.0
 11
60.4464
 21
221.615
 31
0.0
  0
LINE
  8
0
 62
     0
 10
60.4464
 20
221.615
 30
0.0
 11
69.7921
 21
205.116
 31
0.0
  0
LINE
  8
0
 62
     0
 10
69.7921
 20
205.116
 30
0.0
 11
79.9525
 21
189.066
 31
0.0
  0
LINE
  8
0
 62
     0
 10
79.9525
 20
189.066
 30
0.0
 11
90.9133
 21
173.495
 31
0.0
  0
LINE
  8
0
 62
     0
 10
90.9133
 20
173.495
 30
0.0
 11
102.663
 21
158.437
 31
0.0
  0
LINE
  8
0
 62
     0
 10
102.663
 20
158.437
 30
0.0
 11
115.188
 21
143.922
 31
0.0
  0
LINE
  8
0
 62
     0
 10
115.188
 20
143.922
 30
0.0
 11
125.067
 21
133.385
 31
0.0
  0
LINE
  8
0
 62
     0
 10
125.067
 20
133.385
 30
0.0
 11
128.473
 21
129.983
 31
0.0
  0
LINE
  8
0
 62
     0
 10
128.473
 20
129.983
 30
0.0
 11
131.878
 21
126.584
 31
0.0
  0
LINE
  8
0
 62
     0
 10
131.878
 20
126.584
 30
0.0
 11
142.433
 21
116.72
 31
0.0
  0
LINE
  8
0
 62
     0
 10
142.433
 20
116.72
 30
0.0
 11
156.971
 21
104.215
 31
0.0
  0
LINE
  8
0
 62
     0
 10
156.971
 20
104.215
 30
0.0
 11
172.052
 21
92.4856
 31
0.0
  0
LINE
  8
0
 62
     0
 10
172.052
 20
92.4856
 30
0.0
 11
187.647
 21
81.5428
 31
0.0
  0
LINE
  8
0
 62
     0
 10
187.647
 20
81.5428
 30
0.0
 11
203.724
 21
71.3976
 31
0.0
  0
LINE
  8
0
 62
     0
 10
203.724
 20
71.3976
 30
0.0
 11
220.249
 21
62.067
 31
0.0
  0
LINE
  8
0
 62
     0
 10
220.249
 20
62.067
 30
0.0
 11
237.192
 21
53.563
 31
0.0
  0
LINE
  8
0
 62
     0
 10
237.192
 20
53.563
 30
0.0
 11
254.52
 21
45.8971
 31
0.0
  0
LINE
  8
0
 62
     0
 10
254.52
 20
45.8971
 30
0.0
 11
272.203
 21
39.0839
 31
0.0
  0
LINE
  8
0
 62
     0
 10
272.203
 20
39.0839
 30
0.0
 11
290.205
 21
33.1377
 31
0.0
  0
LINE
  8
0
 62
     0
 10
290.205
 20
33.1377
 30
0.0
 11
308.5
 21
28.0693
 31
0.0
  0
LINE
  8
0
 62
     0
 10
308.5
 20
28.0693
 30
0.0
 11
327.051
 21
23.8924
 31
0.0
  0
LINE
  8
0
 62
     0
 10
327.051
 20
23.8924
 30
0.0
 11
345.83
 21
20.621
 31
0.0
  0
LINE
  8
0
 62
     0
 10
345.83
 20
20.621
 30
0.0
 11
364.804
 21
18.2687
 31
0.0
  0
LINE
  8
0
 62
     0
 10
364.804
 20
18.2687
 30
0.0
 11
383.939
 21
16.8465
 31
0.0
  0
LINE
  8
0
 62
     0
 10
383.939
 20
16.8465
 30
0.0
 11
398.388
 21
16.3697
 31
0.0
  0
LINE
  8
0
 62
     0
 10
398.388
 20
16.3697
 30
0.0
 11
403.204
 21
16.3697
 31
0.0
  0
LINE
  8
0
 62
     0
 10
403.204
 20
16.3697
 30
0.0
 11
407.243
 21
16.3739
 31
0.0
  0
LINE
  8
0
 62
     0
 10
407.243
 20
16.3739
 30
0.0
 11
419.354
 21
16.6756
 31
0.0
  0
LINE
  8
0
 62
     0
 10
419.354
 20
16.6756
 30
0.0
 11
435.254
 21
17.5672
 31
0.0
  0
LINE
  8
0
 62
     0
 10
435.254
 20
17.5672
 30
0.0
 11
450.921
 21
19.0583
 31
0.0
  0
LINE
  8
0
 62
     0
 10
450.921
 20
19.0583
 30
0.0
 11
466.379
 21
21.1612
 31
0.0
  0
LINE
  8
0
 62
     0
 10
466.379
 20
21.1612
 30
0.0
 11
481.644
 21
23.8911
 31
0.0
  0
LINE
  8
0
 62
     0
 10
481.644
 20
23.8911
 30
0.0
 11
496.739
 21
27.2603
 31
0.0
  0
LINE
  8
0
 62
     0
 10
496.739
 20
27.2603
 30
0.0
 11
511.683
 21
31.2829
 31
0.0
  0
LINE
  8
0
 62
     0
 10
511.683
 20
31.2829
 30
0.0
 11
526.496
 21
35.9724
 31
0.0
  0
LINE
  8
0
 62
     0
 10
526.496
 20
35.9724
 30
0.0
 11
541.193
 21
41.3438
 31
0.0
  0
LINE
  8
0
 62
     0
 10
541.193
 20
41.3438
 30
0.0
 11
555.805
 21
47.4087
 31
0.0
  0
LINE
  8
0
 62
     0
 10
555.805
 20
47.4087
 30
0.0
 11
570.343
 21
54.1803
 31
0.0
  0
LINE
  8
0
 62
     0
 10
570.343
 20
54.1803
 30
0.0
 11
584.831
 21
61.674
 31
0.0
  0
LINE
  8
0
 62
     0
 10
584.831
 20
61.674
 30
0.0
 11
599.288
 21
69.9022
 31
0.0
  0
LINE
  8
0
 62
     0
 10
599.288
 20
69.9022
 30
0.0
 11
613.731
 21
78.879
 31
0.0
  0
LINE
  8
0
 62
     0
 10
613.731
 20
78.879
 30
0.0
 11
628.188
 21
88.6188
 31
0.0
  0
LINE
  8
0
 62
     0
 10
628.188
 20
88.6188
 30
0.0
 11
639.096
 21
96.4434
 31
0.0
  0
LINE
  8
0
 62
     0
 10
639.096
 20
96.4434
 30
0.0
 11
642.669
 21
99.132
 31
0.0
  0
LINE
  8
0
 62
     0
 10
642.669
 20
99.132
 30
0.0
 11
644.504
 21
100.51
 31
0.0
  0
LINE
  8
0
 62
     0
 10
644.504
 20
100.51
 30
0.0
 11
649.863
 21
104.83
 31
0.0
  0
LINE
  8
0
 62
     0
 10
649.863
 20
104.83
 30
0.0
 11
656.932
 21
110.988
 31
0.0
  0
LINE
  8
0
 62
     0
 10
656.932
 20
110.988
 30
0.0
 11
663.875
 21
117.567
 31
0.0
  0
LINE
  8
0
 62
     0
 10
663.875
 20
117.567
 30
0.0
 11
670.68
 21
124.524
 31
0.0
  0
LINE
  8
0
 62
     0
 10
670.68
 20
124.524
 30
0.0
 11
677.34
 21
131.816
 31
0.0
  0
LINE
  8
0
 62
     0
 10
677.34
 20
131.816
 30
0.0
 11
683.853
 21
139.404
 31
0.0
  0
LINE
  8
0
 62
     0
 10
683.853
 20
139.404
 30
0.0
 11
690.213
 21
147.245
 31
0.0
  0
LINE
  8
0
 62
     0
 10
690.213
 20
147.245
 30
0.0
 11
696.408
 21
155.299
 31
0.0
  0
LINE
  8
0
 62
     0
 10
696.408
 20
155.299
 30
0.0
 11
702.43
 21
163.522
 31
0.0
  0
LINE
  8
0
 62
     0
 10
702.43
 20
163.522
 30
0.0
 11
708.283
 21
171.876
 31
0.0
  0
LINE
  8
0
 62
     0
 10
708.283
 20
171.876
 30
0.0
 11
713.948
 21
180.316
 31
0.0
  0
LINE
  8
0
 62
     0
 10
713.948
 20
180.316
 30
0.0
 11
719.427
 21
188.802
 31
0.0
  0
LINE
  8
0
 62
     0
 10
719.427
 20
188.802
 30
0.0
 11
724.708
 21
197.294
 31
0.0
  0
LINE
  8
0
 62
     0
 10
724.708
 20
197.294
 30
0.0
 11
729.788
 21
205.748
 31
0.0
  0
LINE
  8
0
 62
     0
 10
729.788
 20
205.748
 30
0.0
 11
734.656
 21
214.124
 31
0.0
  0
LINE
  8
0
 62
     0
 10
734.656
 20
214.124
 30
0.0
 11
739.309
 21
222.379
 31
0.0
  0
LINE
  8
0
 62
     0
 10
739.309
 20
222.379
 30
0.0
 11
743.74
 21
230.474
 31
0.0
  0
LINE
  8
0
 62
     0
 10
743.74
 20
230.474
 30
0.0
 11
747.945
 21
238.365
 31
0.0
  0
LINE
  8
0
 62
     0
 10
747.945
 20
238.365
 30
0.0
 11
751.911
 21
246.013
 31
0.0
  0
LINE
  8
0
 62
     0
 10
751.911
 20
246.013
 30
0.0
 11
755.632
 21
253.373
 31
0.0
  0
LINE
  8
0
 62
     0
 10
755.632
 20
253.373
 30
0.0
 11
759.107
 21
260.406
 31
0.0
  0
LINE
  8
0
 62
     0
 10
759.107
 20
260.406
 30
0.0
 11
762.325
 21
267.071
 31
0.0
  0
LINE
  8
0
 62
     0
 10
762.325
 20
267.071
 30
0.0
 11
765.281
 21
273.326
 31
0.0
  0
LINE
  8
0
 62
     0
 10
765.281
 20
273.326
 30
0.0
 11
767.965
 21
279.127
 31
0.0
  0
LINE
  8
0
 62
     0
 10
767.965
 20
279.127
 30
0.0
 11
770.378
 21
284.437
 31
0.0
  0
LINE
  8
0
 62
     0
 10
770.378
 20
284.437
 30
0.0
 11
772.506
 21
289.21
 31
0.0
  0
LINE
  8
0
 62
     0
 10
772.506
 20
289.21
 30
0.0
 11
774.344
 21
293.408
 31
0.0
  0
LINE
  8
0
 62
     0
 10
774.344
 20
293.408
 30
0.0
 11
775.885
 21
296.987
 31
0.0
  0
LINE
  8
0
 62
     0
 10
775.885
 20
296.987
 30
0.0
 11
777.127
 21
299.907
 31
0.0
  0
LINE
  8
0
 62
     0
 10
777.127
 20
299.907
 30
0.0
 11
778.055
 21
302.125
 31
0.0
  0
LINE
  8
0
 62
     0
 10
778.055
 20
302.125
 30
0.0
 11
778.669
 21
303.602
 31
0.0
  0
LINE
  8
0
 62
     0
 10
778.669
 20
303.602
 30
0.0
 11
778.884
 21
304.123
 31
0.0
  0
LINE
  8
0
 62
     0
 10
778.884
 20
304.123
 30
0.0
 11
778.962
 21
304.294
 31
0.0
  0
LINE
  8
0
 62
     0
 10
778.962
 20
304.294
 30
0.0
 11
779.279
 21
305.007
 31
0.0
  0
LINE
  8
0
 62
     0
 10
779.279
 20
305.007
 30
0.0
 11
780.221
 21
307.148
 31
0.0
  0
LINE
  8
0
 62
     0
 10
780.221
 20
307.148
 30
0.0
 11
781.745
 21
310.551
 31
0.0
  0
LINE
  8
0
 62
     0
 10
781.745
 20
310.551
 30
0.0
 11
783.223
 21
313.646
 31
0.0
  0
LINE
  8
0
 62
     0
 10
783.223
 20
313.646
 30
0.0
 11
784.066
 21
315.224
 31
0.0
  0
LINE
  8
0
 62
     0
 10
784.066
 20
315.224
 30
0.0
 11
784.345
 21
315.578
 31
0.0
  0
LINE
  8
0
 62
     0
 10
784.345
 20
315.578
 30
0.0
 11
784.818
 21
316.173
 31
0.0
  0
LINE
  8
0
 62
     0
 10
784.818
 20
316.173
 30
0.0
 11
786.176
 21
318.002
 31
0.0
  0
LINE
  8
0
 62
     0
 10
786.176
 20
318.002
 30
0.0
 11
788.55
 21
321.298
 31
0.0
  0
LINE
  8
0
 62
     0
 10
788.55
 20
321.298
 30
0.0
 11
791.302
 21
325.216
 31
0.0
  0
LINE
  8
0
 62
     0
 10
791.302
 20
325.216
 30
0.0
 11
794.269
 21
329.503
 31
0.0
  0
LINE
  8
0
 62
     0
 10
794.269
 20
329.503
 30
0.0
 11
797.285
 21
333.91
 31
0.0
  0
LINE
  8
0
 62
     0
 10
797.285
 20
333.91
 30
0.0
 11
800.181
 21
338.183
 31
0.0
  0
LINE
  8
0
 62
     0
 10
800.181
 20
338.183
 30
0.0
 11
802.799
 21
342.072
 31
0.0
  0
LINE
  8
0
 62
     0
 10
802.799
 20
342.072
 30
0.0
 11
804.429
 21
344.511
 31
0.0
  0
LINE
  8
0
 62
     0
 10
804.429
 20
344.511
 30
0.0
 11
804.968
 21
345.325
 31
0.0
  0
LINE
  8
0
 62
     0
 10
804.968
 20
345.325
 30
0.0
 11
805.483
 21
346.098
 31
0.0
  0
LINE
  8
0
 62
     0
 10
805.483
 20
346.098
 30
0.0
 11
806.884
 21
348.51
 31
0.0
  0
LINE
  8
0
 62
     0
 10
806.884
 20
348.51
 30
0.0
 11
808.782
 21
352.176
 31
0.0
  0
LINE
  8
0
 62
     0
 10
808.782
 20
352.176
 30
0.0
 11
810.585
 21
356.059
 31
0.0
  0
LINE
  8
0
 62
     0
 10
810.585
 20
356.059
 30
0.0
 11
812.204
 21
359.883
 31
0.0
  0
LINE
  8
0
 62
     0
 10
812.204
 20
359.883
 30
0.0
 11
813.551
 21
363.389
 31
0.0
  0
LINE
  8
0
 62
     0
 10
813.551
 20
363.389
 30
0.0
 11
814.546
 21
366.3
 31
0.0
  0
LINE
  8
0
 62
     0
 10
814.546
 20
366.3
 30
0.0
 11
815.1
 21
368.349
 31
0.0
  0
LINE
  8
0
 62
     0
 10
815.1
 20
368.349
 30
0.0
 11
815.238
 21
369.157
 31
0.0
  0
LINE
  8
0
 62
     0
 10
815.238
 20
369.157
 30
0.0
 11
815.128
 21
369.27
 31
0.0
  0
LINE
  8
0
 62
     0
 10
815.128
 20
369.27
 30
0.0
 11
815.058
 21
369.341
 31
0.0
  0
LINE
  8
0
 62
     0
 10
815.058
 20
369.341
 30
0.0
 11
814.324
 21
369.023
 31
0.0
  0
LINE
  8
0
 62
     0
 10
814.324
 20
369.023
 30
0.0
 11
812.574
 21
367.887
 31
0.0
  0
LINE
  8
0
 62
     0
 10
812.574
 20
367.887
 30
0.0
 11
810.094
 21
366.063
 31
0.0
  0
LINE
  8
0
 62
     0
 10
810.094
 20
366.063
 30
0.0
 11
807.092
 21
363.746
 31
0.0
  0
LINE
  8
0
 62
     0
 10
807.092
 20
363.746
 30
0.0
 11
803.779
 21
361.135
 31
0.0
  0
LINE
  8
0
 62
     0
 10
803.779
 20
361.135
 30
0.0
 11
800.372
 21
358.436
 31
0.0
  0
LINE
  8
0
 62
     0
 10
800.372
 20
358.436
 30
0.0
 11
797.077
 21
355.843
 31
0.0
  0
LINE
  8
0
 62
     0
 10
797.077
 20
355.843
 30
0.0
 11
794.851
 21
354.122
 31
0.0
  0
LINE
  8
0
 62
     0
 10
794.851
 20
354.122
 30
0.0
 11
794.103
 21
353.557
 31
0.0
  0
LINE
  8
0
 62
     0
 10
794.103
 20
353.557
 30
0.0
 11
793.605
 21
353.212
 31
0.0
  0
LINE
  8
0
 62
     0
 10
793.605
 20
353.212
 30
0.0
 11
790.967
 21
351.374
 31
0.0
  0
LINE
  8
0
 62
     0
 10
790.967
 20
351.374
 30
0.0
 11
788.391
 21
349.68
 31
0.0
  0
LINE
  8
0
 62
     0
 10
788.391
 20
349.68
 30
0.0
 11
787.926
 21
349.405
 31
0.0
  0
LINE
  8
0
 62
     0
 10
787.926
 20
349.405
 30
0.0
 11
788.487
 21
352.912
 31
0.0
  0
LINE
  8
0
 62
     0
 10
788.487
 20
352.912
 30
0.0
 11
789.838
 21
363.485
 31
0.0
  0
LINE
  8
0
 62
     0
 10
789.838
 20
363.485
 30
0.0
 11
790.977
 21
376.749
 31
0.0
  0
LINE
  8
0
 62
     0
 10
790.977
 20
376.749
 30
0.0
 11
791.545
 21
390.056
 31
0.0
  0
LINE
  8
0
 62
     0
 10
791.545
 20
390.056
 30
0.0
 11
791.714
 21
400.72
 31
0.0
  0
LINE
  8
0
 62
     0
 10
791.714
 20
400.72
 30
0.0
 11
791.732
 21
404.276
 31
0.0
  0
LINE
  8
0
 62
     0
 10
791.732
 20
404.276
 30
0.0
 11
791.732
 21
409.085
 31
0.0
  0
LINE
  8
0
 62
     0
 10
791.732
 20
409.085
 30
0.0
 11
791.256
 21
423.51
 31
0.0
  0
LINE
  8
0
 62
     0
 10
791.256
 20
423.51
 30
0.0
 11
789.831
 21
442.616
 31
0.0
  0
LINE
  8
0
 62
     0
 10
789.831
 20
442.616
 30
0.0
 11
787.474
 21
461.557
 31
0.0
  0
LINE
  8
0
 62
     0
 10
787.474
 20
461.557
 30
0.0
 11
784.197
 21
480.307
 31
0.0
  0
LINE
  8
0
 62
     0
 10
784.197
 20
480.307
 30
0.0
 11
780.016
 21
498.828
 31
0.0
  0
LINE
  8
0
 62
     0
 10
780.016
 20
498.828
 30
0.0
 11
774.94
 21
517.091
 31
0.0
  0
LINE
  8
0
 62
     0
 10
774.94
 20
517.091
 30
0.0
 11
768.981
 21
535.069
 31
0.0
  0
LINE
  8
0
 62
     0
 10
768.981
 20
535.069
 30
0.0
 11
762.159
 21
552.722
 31
0.0
  0
LINE
  8
0
 62
     0
 10
762.159
 20
552.722
 30
0.0
 11
754.479
 21
570.022
 31
0.0
  0
LINE
  8
0
 62
     0
 10
754.479
 20
570.022
 30
0.0
 11
745.963
 21
586.938
 31
0.0
  0
LINE
  8
0
 62
     0
 10
745.963
 20
586.938
 30
0.0
 11
736.614
 21
603.437
 31
0.0
  0
LINE
  8
0
 62
     0
 10
736.614
 20
603.437
 30
0.0
 11
726.454
 21
619.485
 31
0.0
  0
LINE
  8
0
 62
     0
 10
726.454
 20
619.485
 30
0.0
 11
715.493
 21
635.056
 31
0.0
  0
LINE
  8
0
 62
     0
 10
715.493
 20
635.056
 30
0.0
 11
703.746
 21
650.113
 31
0.0
  0
LINE
  8
0
 62
     0
 10
703.746
 20
650.113
 30
0.0
 11
691.219
 21
664.63
 31
0.0
  0
LINE
  8
0
 62
     0
 10
691.219
 20
664.63
 30
0.0
 11
681.341
 21
675.167
 31
0.0
  0
LINE
  8
0
 62
     0
 10
681.341
 20
675.167
 30
0.0
 11
677.937
 21
678.568
 31
0.0
  0
LINE
  8
0
 62
     0
 10
677.937
 20
678.568
 30
0.0
 11
674.529
 21
681.969
 31
0.0
  0
LINE
  8
0
 62
     0
 10
674.529
 20
681.969
 30
0.0
 11
663.974
 21
691.832
 31
0.0
  0
LINE
  8
0
 62
     0
 10
663.974
 20
691.832
 30
0.0
 11
649.436
 21
704.335
 31
0.0
  0
LINE
  8
0
 62
     0
 10
649.436
 20
704.335
 30
0.0
 11
634.354
 21
716.065
 31
0.0
  0
LINE
  8
0
 62
     0
 10
634.354
 20
716.065
 30
0.0
 11
618.758
 21
727.012
 31
0.0
  0
LINE
  8
0
 62
     0
 10
618.758
 20
727.012
 30
0.0
 11
602.682
 21
737.154
 31
0.0
  0
LINE
  8
0
 62
     0
 10
602.682
 20
737.154
 30
0.0
 11
586.158
 21
746.485
 31
0.0
  0
LINE
  8
0
 62
     0
 10
586.158
 20
746.485
 30
0.0
 11
569.214
 21
754.99
 31
0.0
  0
LINE
  8
0
 62
     0
 10
569.214
 20
754.99
 30
0.0
 11
551.889
 21
762.656
 31
0.0
  0
LINE
  8
0
 62
     0
 10
551.889
 20
762.656
 30
0.0
 11
534.204
 21
769.468
 31
0.0
  0
LINE
  8
0
 62
     0
 10
534.204
 20
769.468
 30
0.0
 11
516.202
 21
775.416
 31
0.0
  0
LINE
  8
0
 62
     0
 10
516.202
 20
775.416
 30
0.0
 11
497.907
 21
780.482
 31
0.0
  0
LINE
  8
0
 62
     0
 10
497.907
 20
780.482
 30
0.0
 11
479.354
 21
784.659
 31
0.0
  0
LINE
  8
0
 62
     0
 10
479.354
 20
784.659
 30
0.0
 11
460.576
 21
787.933
 31
0.0
  0
LINE
  8
0
 62
     0
 10
460.576
 20
787.933
 30
0.0
 11
441.604
 21
790.286
 31
0.0
  0
LINE
  8
0
 62
     0
 10
441.604
 20
790.286
 30
0.0
 11
422.469
 21
791.707
 31
0.0
  0
LINE
  8
0
 62
     0
 10
422.469
 20
791.707
 30
0.0
 11
408.019
 21
792.18
 31
0.0
  0
LINE
  8
0
 62
     0
 10
408.019
 20
792.18
 30
0.0
 11
403.204
 21
792.18
 31
0.0
  0
LINE
  8
0
 62
     0
 10
426.23
 20
754.218
 30
0.0
 11
430.117
 21
754.218
 31
0.0
  0
LINE
  8
0
 62
     0
 10
430.117
 20
754.218
 30
0.0
 11
441.787
 21
753.833
 31
0.0
  0
LINE
  8
0
 62
     0
 10
441.787
 20
753.833
 30
0.0
 11
457.239
 21
752.683
 31
0.0
  0
LINE
  8
0
 62
     0
 10
457.239
 20
752.683
 30
0.0
 11
472.56
 21
750.782
 31
0.0
  0
LINE
  8
0
 62
     0
 10
472.56
 20
750.782
 30
0.0
 11
487.722
 21
748.139
 31
0.0
  0
LINE
  8
0
 62
     0
 10
487.722
 20
748.139
 30
0.0
 11
502.705
 21
744.763
 31
0.0
  0
LINE
  8
0
 62
     0
 10
502.705
 20
744.763
 30
0.0
 11
517.479
 21
740.668
 31
0.0
  0
LINE
  8
0
 62
     0
 10
517.479
 20
740.668
 30
0.0
 11
532.017
 21
735.859
 31
0.0
  0
LINE
  8
0
 62
     0
 10
532.017
 20
735.859
 30
0.0
 11
546.294
 21
730.352
 31
0.0
  0
LINE
  8
0
 62
     0
 10
546.294
 20
730.352
 30
0.0
 11
560.289
 21
724.158
 31
0.0
  0
LINE
  8
0
 62
     0
 10
560.289
 20
724.158
 30
0.0
 11
573.969
 21
717.285
 31
0.0
  0
LINE
  8
0
 62
     0
 10
573.969
 20
717.285
 30
0.0
 11
587.315
 21
709.743
 31
0.0
  0
LINE
  8
0
 62
     0
 10
587.315
 20
709.743
 30
0.0
 11
600.297
 21
701.544
 31
0.0
  0
LINE
  8
0
 62
     0
 10
600.297
 20
701.544
 30
0.0
 11
612.891
 21
692.697
 31
0.0
  0
LINE
  8
0
 62
     0
 10
612.891
 20
692.697
 30
0.0
 11
625.073
 21
683.218
 31
0.0
  0
LINE
  8
0
 62
     0
 10
625.073
 20
683.218
 30
0.0
 11
636.81
 21
673.111
 31
0.0
  0
LINE
  8
0
 62
     0
 10
636.81
 20
673.111
 30
0.0
 11
645.336
 21
665.138
 31
0.0
  0
LINE
  8
0
 62
     0
 10
645.336
 20
665.138
 30
0.0
 11
648.085
 21
662.39
 31
0.0
  0
LINE
  8
0
 62
     0
 10
648.085
 20
662.39
 30
0.0
 11
650.836
 21
659.642
 31
0.0
  0
LINE
  8
0
 62
     0
 10
650.836
 20
659.642
 30
0.0
 11
658.813
 21
651.125
 31
0.0
  0
LINE
  8
0
 62
     0
 10
658.813
 20
651.125
 30
0.0
 11
668.927
 21
639.396
 31
0.0
  0
LINE
  8
0
 62
     0
 10
668.927
 20
639.396
 30
0.0
 11
678.416
 21
627.225
 31
0.0
  0
LINE
  8
0
 62
     0
 10
678.416
 20
627.225
 30
0.0
 11
687.268
 21
614.641
 31
0.0
  0
LINE
  8
0
 62
     0
 10
687.268
 20
614.641
 30
0.0
 11
695.47
 21
601.67
 31
0.0
  0
LINE
  8
0
 62
     0
 10
695.47
 20
601.67
 30
0.0
 11
703.019
 21
588.331
 31
0.0
  0
LINE
  8
0
 62
     0
 10
703.019
 20
588.331
 30
0.0
 11
709.898
 21
574.661
 31
0.0
  0
LINE
  8
0
 62
     0
 10
709.898
 20
574.661
 30
0.0
 11
716.097
 21
560.677
 31
0.0
  0
LINE
  8
0
 62
     0
 10
716.097
 20
560.677
 30
0.0
 11
721.607
 21
546.41
 31
0.0
  0
LINE
  8
0
 62
     0
 10
721.607
 20
546.41
 30
0.0
 11
726.419
 21
531.883
 31
0.0
  0
LINE
  8
0
 62
     0
 10
726.419
 20
531.883
 30
0.0
 11
730.518
 21
517.123
 31
0.0
  0
LINE
  8
0
 62
     0
 10
730.518
 20
517.123
 30
0.0
 11
733.898
 21
502.151
 31
0.0
  0
LINE
  8
0
 62
     0
 10
733.898
 20
502.151
 30
0.0
 11
736.544
 21
486.996
 31
0.0
  0
LINE
  8
0
 62
     0
 10
736.544
 20
486.996
 30
0.0
 11
738.445
 21
471.689
 31
0.0
  0
LINE
  8
0
 62
     0
 10
738.445
 20
471.689
 30
0.0
 11
739.595
 21
456.248
 31
0.0
  0
LINE
  8
0
 62
     0
 10
739.595
 20
456.248
 30
0.0
 11
739.983
 21
444.588
 31
0.0
  0
LINE
  8
0
 62
     0
 10
739.983
 20
444.588
 30
0.0
 11
739.983
 21
440.701
 31
0.0
  0
LINE
  8
0
 62
     0
 10
739.983
 20
440.701
 30
0.0
 11
739.856
 21
438.704
 31
0.0
  0
LINE
  8
0
 62
     0
 10
739.856
 20
438.704
 30
0.0
 11
739.415
 21
432.714
 31
0.0
  0
LINE
  8
0
 62
     0
 10
739.415
 20
432.714
 30
0.0
 11
738.717
 21
424.716
 31
0.0
  0
LINE
  8
0
 62
     0
 10
738.717
 20
424.716
 30
0.0
 11
737.905
 21
416.75
 31
0.0
  0
LINE
  8
0
 62
     0
 10
737.905
 20
416.75
 30
0.0
 11
736.981
 21
408.873
 31
0.0
  0
LINE
  8
0
 62
     0
 10
736.981
 20
408.873
 30
0.0
 11
735.965
 21
401.133
 31
0.0
  0
LINE
  8
0
 62
     0
 10
735.965
 20
401.133
 30
0.0
 11
734.857
 21
393.577
 31
0.0
  0
LINE
  8
0
 62
     0
 10
734.857
 20
393.577
 30
0.0
 11
733.679
 21
386.26
 31
0.0
  0
LINE
  8
0
 62
     0
 10
733.679
 20
386.26
 30
0.0
 11
732.43
 21
379.233
 31
0.0
  0
LINE
  8
0
 62
     0
 10
732.43
 20
379.233
 30
0.0
 11
731.132
 21
372.54
 31
0.0
  0
LINE
  8
0
 62
     0
 10
731.132
 20
372.54
 30
0.0
 11
729.784
 21
366.24
 31
0.0
  0
LINE
  8
0
 62
     0
 10
729.784
 20
366.24
 30
0.0
 11
728.405
 21
360.38
 31
0.0
  0
LINE
  8
0
 62
     0
 10
728.405
 20
360.38
 30
0.0
 11
727.004
 21
355.007
 31
0.0
  0
LINE
  8
0
 62
     0
 10
727.004
 20
355.007
 30
0.0
 11
725.59
 21
350.179
 31
0.0
  0
LINE
  8
0
 62
     0
 10
725.59
 20
350.179
 30
0.0
 11
724.172
 21
345.94
 31
0.0
  0
LINE
  8
0
 62
     0
 10
724.172
 20
345.94
 30
0.0
 11
722.761
 21
342.345
 31
0.0
  0
LINE
  8
0
 62
     0
 10
722.761
 20
342.345
 30
0.0
 11
721.755
 21
340.147
 31
0.0
  0
LINE
  8
0
 62
     0
 10
721.755
 20
340.147
 30
0.0
 11
721.374
 21
339.44
 31
0.0
  0
LINE
  8
0
 62
     0
 10
721.374
 20
339.44
 30
0.0
 11
720.693
 21
338.189
 31
0.0
  0
LINE
  8
0
 62
     0
 10
720.693
 20
338.189
 30
0.0
 11
718.658
 21
334.435
 31
0.0
  0
LINE
  8
0
 62
     0
 10
718.658
 20
334.435
 30
0.0
 11
716.037
 21
329.639
 31
0.0
  0
LINE
  8
0
 62
     0
 10
716.037
 20
329.639
 30
0.0
 11
713.546
 21
325.14
 31
0.0
  0
LINE
  8
0
 62
     0
 10
713.546
 20
325.14
 30
0.0
 11
711.207
 21
321.025
 31
0.0
  0
LINE
  8
0
 62
     0
 10
711.207
 20
321.025
 30
0.0
 11
709.052
 21
317.38
 31
0.0
  0
LINE
  8
0
 62
     0
 10
709.052
 20
317.38
 30
0.0
 11
707.104
 21
314.295
 31
0.0
  0
LINE
  8
0
 62
     0
 10
707.104
 20
314.295
 30
0.0
 11
705.4
 21
311.854
 31
0.0
  0
LINE
  8
0
 62
     0
 10
705.4
 20
311.854
 30
0.0
 11
704.353
 21
310.542
 31
0.0
  0
LINE
  8
0
 62
     0
 10
704.353
 20
310.542
 30
0.0
 11
703.961
 21
310.145
 31
0.0
  0
LINE
  8
0
 62
     0
 10
703.961
 20
310.145
 30
0.0
 11
703.778
 21
309.959
 31
0.0
  0
LINE
  8
0
 62
     0
 10
703.778
 20
309.959
 30
0.0
 11
703.097
 21
309.291
 31
0.0
  0
LINE
  8
0
 62
     0
 10
703.097
 20
309.291
 30
0.0
 11
701.636
 21
307.906
 31
0.0
  0
LINE
  8
0
 62
     0
 10
701.636
 20
307.906
 30
0.0
 11
699.647
 21
306.084
 31
0.0
  0
LINE
  8
0
 62
     0
 10
699.647
 20
306.084
 30
0.0
 11
697.809
 21
304.451
 31
0.0
  0
LINE
  8
0
 62
     0
 10
697.809
 20
304.451
 30
0.0
 11
697.191
 21
303.915
 31
0.0
  0
LINE
  8
0
 62
     0
 10
697.191
 20
303.915
 30
0.0
 11
697.488
 21
304.486
 31
0.0
  0
LINE
  8
0
 62
     0
 10
697.488
 20
304.486
 30
0.0
 11
699.731
 21
310.279
 31
0.0
  0
LINE
  8
0
 62
     0
 10
699.731
 20
310.279
 30
0.0
 11
699.883
 21
310.859
 31
0.0
  0
LINE
  8
0
 62
     0
 10
699.883
 20
310.859
 30
0.0
 11
699.918
 21
311.023
 31
0.0
  0
LINE
  8
0
 62
     0
 10
699.918
 20
311.023
 30
0.0
 11
700.207
 21
312.186
 31
0.0
  0
LINE
  8
0
 62
     0
 10
700.207
 20
312.186
 30
0.0
 11
700.574
 21
313.475
 31
0.0
  0
LINE
  8
0
 62
     0
 10
700.574
 20
313.475
 30
0.0
 11
700.648
 21
313.701
 31
0.0
  0
LINE
  8
0
 62
     0
 10
700.648
 20
313.701
 30
0.0
 11
700.775
 21
314.102
 31
0.0
  0
LINE
  8
0
 62
     0
 10
700.775
 20
314.102
 30
0.0
 11
701.171
 21
315.794
 31
0.0
  0
LINE
  8
0
 62
     0
 10
701.171
 20
315.794
 30
0.0
 11
701.88
 21
319.203
 31
0.0
  0
LINE
  8
0
 62
     0
 10
701.88
 20
319.203
 30
0.0
 11
702.642
 21
323.228
 31
0.0
  0
LINE
  8
0
 62
     0
 10
702.642
 20
323.228
 30
0.0
 11
703.157
 21
326.186
 31
0.0
  0
LINE
  8
0
 62
     0
 10
703.157
 20
326.186
 30
0.0
 11
703.315
 21
327.174
 31
0.0
  0
LINE
  8
0
 62
     0
 10
703.315
 20
327.174
 30
0.0
 11
703.404
 21
327.744
 31
0.0
  0
LINE
  8
0
 62
     0
 10
703.404
 20
327.744
 30
0.0
 11
703.481
 21
329.486
 31
0.0
  0
LINE
  8
0
 62
     0
 10
703.481
 20
329.486
 30
0.0
 11
703.411
 21
332.945
 31
0.0
  0
LINE
  8
0
 62
     0
 10
703.411
 20
332.945
 30
0.0
 11
703.097
 21
337.676
 31
0.0
  0
LINE
  8
0
 62
     0
 10
703.097
 20
337.676
 30
0.0
 11
702.687
 21
342.272
 31
0.0
  0
LINE
  8
0
 62
     0
 10
702.687
 20
342.272
 30
0.0
 11
702.536
 21
343.801
 31
0.0
  0
LINE
  8
0
 62
     0
 10
702.536
 20
343.801
 30
0.0
 11
702.49
 21
344.234
 31
0.0
  0
LINE
  8
0
 62
     0
 10
702.49
 20
344.234
 30
0.0
 11
702.395
 21
345.536
 31
0.0
  0
LINE
  8
0
 62
     0
 10
702.395
 20
345.536
 30
0.0
 11
702.247
 21
347.909
 31
0.0
  0
LINE
  8
0
 62
     0
 10
702.247
 20
347.909
 30
0.0
 11
702.109
 21
350.61
 31
0.0
  0
LINE
  8
0
 62
     0
 10
702.109
 20
350.61
 30
0.0
 11
702.024
 21
352.648
 31
0.0
  0
LINE
  8
0
 62
     0
 10
702.024
 20
352.648
 30
0.0
 11
702.003
 21
353.325
 31
0.0
  0
LINE
  8
0
 62
     0
 10
702.003
 20
353.325
 30
0.0
 11
701.978
 21
354.034
 31
0.0
  0
LINE
  8
0
 62
     0
 10
701.978
 20
354.034
 30
0.0
 11
701.866
 21
356.154
 31
0.0
  0
LINE
  8
0
 62
     0
 10
701.866
 20
356.154
 30
0.0
 11
701.65
 21
359.16
 31
0.0
  0
LINE
  8
0
 62
     0
 10
701.65
 20
359.16
 30
0.0
 11
701.386
 21
361.982
 31
0.0
  0
LINE
  8
0
 62
     0
 10
701.386
 20
361.982
 30
0.0
 11
701.188
 21
363.696
 31
0.0
  0
LINE
  8
0
 62
     0
 10
701.188
 20
363.696
 30
0.0
 11
701.104
 21
364.261
 31
0.0
  0
LINE
  8
0
 62
     0
 10
701.104
 20
364.261
 30
0.0
 11
701.019
 21
364.825
 31
0.0
  0
LINE
  8
0
 62
     0
 10
701.019
 20
364.825
 30
0.0
 11
700.782
 21
366.518
 31
0.0
  0
LINE
  8
0
 62
     0
 10
700.782
 20
366.518
 30
0.0
 11
700.416
 21
369.263
 31
0.0
  0
LINE
  8
0
 62
     0
 10
700.416
 20
369.263
 30
0.0
 11
700.049
 21
372.156
 31
0.0
  0
LINE
  8
0
 62
     0
 10
700.049
 20
372.156
 30
0.0
 11
699.805
 21
374.174
 31
0.0
  0
LINE
  8
0
 62
     0
 10
699.805
 20
374.174
 30
0.0
 11
699.731
 21
374.844
 31
0.0
  0
LINE
  8
0
 62
     0
 10
699.731
 20
374.844
 30
0.0
 11
699.583
 21
376.149
 31
0.0
  0
LINE
  8
0
 62
     0
 10
699.583
 20
376.149
 30
0.0
 11
699.054
 21
380.044
 31
0.0
  0
LINE
  8
0
 62
     0
 10
699.054
 20
380.044
 30
0.0
 11
698.14
 21
385.858
 31
0.0
  0
LINE
  8
0
 62
     0
 10
698.14
 20
385.858
 30
0.0
 11
696.927
 21
392.603
 31
0.0
  0
LINE
  8
0
 62
     0
 10
696.927
 20
392.603
 30
0.0
 11
695.762
 21
398.6
 31
0.0
  0
LINE
  8
0
 62
     0
 10
695.762
 20
398.6
 30
0.0
 11
695.36
 21
400.597
 31
0.0
  0
LINE
  8
0
 62
     0
 10
695.36
 20
400.597
 30
0.0
 11
694.926
 21
402.759
 31
0.0
  0
LINE
  8
0
 62
     0
 10
694.926
 20
402.759
 30
0.0
 11
693.706
 21
409.261
 31
0.0
  0
LINE
  8
0
 62
     0
 10
693.706
 20
409.261
 30
0.0
 11
692.4
 21
417.015
 31
0.0
  0
LINE
  8
0
 62
     0
 10
692.4
 20
417.015
 30
0.0
 11
691.501
 21
423.485
 31
0.0
  0
LINE
  8
0
 62
     0
 10
691.501
 20
423.485
 30
0.0
 11
691.127
 21
427.097
 31
0.0
  0
LINE
  8
0
 62
     0
 10
691.127
 20
427.097
 30
0.0
 11
691.07
 21
428.304
 31
0.0
  0
LINE
  8
0
 62
     0
 10
691.07
 20
428.304
 30
0.0
 11
691.053
 21
428.653
 31
0.0
  0
LINE
  8
0
 62
     0
 10
691.053
 20
428.653
 30
0.0
 11
690.965
 21
429.697
 31
0.0
  0
LINE
  8
0
 62
     0
 10
690.965
 20
429.697
 30
0.0
 11
690.764
 21
431.525
 31
0.0
  0
LINE
  8
0
 62
     0
 10
690.764
 20
431.525
 30
0.0
 11
690.503
 21
433.55
 31
0.0
  0
LINE
  8
0
 62
     0
 10
690.503
 20
433.55
 30
0.0
 11
690.284
 21
435.042
 31
0.0
  0
LINE
  8
0
 62
     0
 10
690.284
 20
435.042
 30
0.0
 11
690.203
 21
435.536
 31
0.0
  0
LINE
  8
0
 62
     0
 10
690.203
 20
435.536
 30
0.0
 11
690.097
 21
436.196
 31
0.0
  0
LINE
  8
0
 62
     0
 10
690.097
 20
436.196
 30
0.0
 11
689.776
 21
438.168
 31
0.0
  0
LINE
  8
0
 62
     0
 10
689.776
 20
438.168
 30
0.0
 11
689.345
 21
440.813
 31
0.0
  0
LINE
  8
0
 62
     0
 10
689.345
 20
440.813
 30
0.0
 11
688.926
 21
443.389
 31
0.0
  0
LINE
  8
0
 62
     0
 10
688.926
 20
443.389
 30
0.0
 11
688.534
 21
445.791
 31
0.0
  0
LINE
  8
0
 62
     0
 10
688.534
 20
445.791
 30
0.0
 11
688.181
 21
447.933
 31
0.0
  0
LINE
  8
0
 62
     0
 10
688.181
 20
447.933
 30
0.0
 11
687.892
 21
449.718
 31
0.0
  0
LINE
  8
0
 62
     0
 10
687.892
 20
449.718
 30
0.0
 11
687.67
 21
451.044
 31
0.0
  0
LINE
  8
0
 62
     0
 10
687.67
 20
451.044
 30
0.0
 11
687.574
 21
451.633
 31
0.0
  0
LINE
  8
0
 62
     0
 10
687.574
 20
451.633
 30
0.0
 11
687.539
 21
451.827
 31
0.0
  0
LINE
  8
0
 62
     0
 10
687.539
 20
451.827
 30
0.0
 11
686.569
 21
460.558
 31
0.0
  0
LINE
  8
0
 62
     0
 10
686.569
 20
460.558
 30
0.0
 11
686.527
 21
460.633
 31
0.0
  0
LINE
  8
0
 62
     0
 10
686.527
 20
460.633
 30
0.0
 11
686.248
 21
460.996
 31
0.0
  0
LINE
  8
0
 62
     0
 10
686.248
 20
460.996
 30
0.0
 11
686.227
 21
460.992
 31
0.0
  0
LINE
  8
0
 62
     0
 10
686.227
 20
460.992
 30
0.0
 11
686.202
 21
460.989
 31
0.0
  0
LINE
  8
0
 62
     0
 10
686.202
 20
460.989
 30
0.0
 11
686.082
 21
460.752
 31
0.0
  0
LINE
  8
0
 62
     0
 10
686.082
 20
460.752
 30
0.0
 11
685.952
 21
460.202
 31
0.0
  0
LINE
  8
0
 62
     0
 10
685.952
 20
460.202
 30
0.0
 11
685.92
 21
460.04
 31
0.0
  0
LINE
  8
0
 62
     0
 10
685.92
 20
460.04
 30
0.0
 11
685.885
 21
459.871
 31
0.0
  0
LINE
  8
0
 62
     0
 10
685.885
 20
459.871
 30
0.0
 11
685.74
 21
459.257
 31
0.0
  0
LINE
  8
0
 62
     0
 10
685.74
 20
459.257
 30
0.0
 11
685.433
 21
458.029
 31
0.0
  0
LINE
  8
0
 62
     0
 10
685.433
 20
458.029
 30
0.0
 11
685.049
 21
456.533
 31
0.0
  0
LINE
  8
0
 62
     0
 10
685.049
 20
456.533
 30
0.0
 11
684.731
 21
455.327
 31
0.0
  0
LINE
  8
0
 62
     0
 10
684.731
 20
455.327
 30
0.0
 11
684.622
 21
454.925
 31
0.0
  0
LINE
  8
0
 62
     0
 10
684.622
 20
454.925
 30
0.0
 11
684.477
 21
454.392
 31
0.0
  0
LINE
  8
0
 62
     0
 10
684.477
 20
454.392
 30
0.0
 11
683.616
 21
451.15
 31
0.0
  0
LINE
  8
0
 62
     0
 10
683.616
 20
451.15
 30
0.0
 11
682.787
 21
448.003
 31
0.0
  0
LINE
  8
0
 62
     0
 10
682.787
 20
448.003
 30
0.0
 11
682.664
 21
447.516
 31
0.0
  0
LINE
  8
0
 62
     0
 10
682.664
 20
447.516
 30
0.0
 11
682.537
 21
447.033
 31
0.0
  0
LINE
  8
0
 62
     0
 10
682.537
 20
447.033
 30
0.0
 11
681.807
 21
444.355
 31
0.0
  0
LINE
  8
0
 62
     0
 10
681.807
 20
444.355
 30
0.0
 11
681.133
 21
442.013
 31
0.0
  0
LINE
  8
0
 62
     0
 10
681.133
 20
442.013
 30
0.0
 11
681.034
 21
441.695
 31
0.0
  0
LINE
  8
0
 62
     0
 10
681.034
 20
441.695
 30
0.0
 11
680.78
 21
440.884
 31
0.0
  0
LINE
  8
0
 62
     0
 10
680.78
 20
440.884
 30
0.0
 11
679.394
 21
436.143
 31
0.0
  0
LINE
  8
0
 62
     0
 10
679.394
 20
436.143
 30
0.0
 11
678.078
 21
431.281
 31
0.0
  0
LINE
  8
0
 62
     0
 10
678.078
 20
431.281
 30
0.0
 11
677.859
 21
430.407
 31
0.0
  0
LINE
  8
0
 62
     0
 10
677.859
 20
430.407
 30
0.0
 11
677.506
 21
429.013
 31
0.0
  0
LINE
  8
0
 62
     0
 10
677.506
 20
429.013
 30
0.0
 11
676.451
 21
424.822
 31
0.0
  0
LINE
  8
0
 62
     0
 10
676.451
 20
424.822
 30
0.0
 11
675.432
 21
420.737
 31
0.0
  0
LINE
  8
0
 62
     0
 10
675.432
 20
420.737
 30
0.0
 11
674.652
 21
417.562
 31
0.0
  0
LINE
  8
0
 62
     0
 10
674.652
 20
417.562
 30
0.0
 11
674.134
 21
415.424
 31
0.0
  0
LINE
  8
0
 62
     0
 10
674.134
 20
415.424
 30
0.0
 11
673.964
 21
414.708
 31
0.0
  0
LINE
  8
0
 62
     0
 10
673.964
 20
414.708
 30
0.0
 11
673.622
 21
413.272
 31
0.0
  0
LINE
  8
0
 62
     0
 10
673.622
 20
413.272
 30
0.0
 11
672.571
 21
408.961
 31
0.0
  0
LINE
  8
0
 62
     0
 10
672.571
 20
408.961
 30
0.0
 11
671.206
 21
403.528
 31
0.0
  0
LINE
  8
0
 62
     0
 10
671.206
 20
403.528
 30
0.0
 11
669.766
 21
398.043
 31
0.0
  0
LINE
  8
0
 62
     0
 10
669.766
 20
398.043
 30
0.0
 11
668.574
 21
393.608
 31
0.0
  0
LINE
  8
0
 62
     0
 10
668.574
 20
393.608
 30
0.0
 11
668.168
 21
392.13
 31
0.0
  0
LINE
  8
0
 62
     0
 10
668.168
 20
392.13
 30
0.0
 11
667.995
 21
391.499
 31
0.0
  0
LINE
  8
0
 62
     0
 10
667.995
 20
391.499
 30
0.0
 11
667.441
 21
389.608
 31
0.0
  0
LINE
  8
0
 62
     0
 10
667.441
 20
389.608
 30
0.0
 11
666.464
 21
386.401
 31
0.0
  0
LINE
  8
0
 62
     0
 10
666.464
 20
386.401
 30
0.0
 11
665.342
 21
382.838
 31
0.0
  0
LINE
  8
0
 62
     0
 10
665.342
 20
382.838
 30
0.0
 11
664.475
 21
380.15
 31
0.0
  0
LINE
  8
0
 62
     0
 10
664.475
 20
380.15
 30
0.0
 11
664.178
 21
379.254
 31
0.0
  0
LINE
  8
0
 62
     0
 10
664.178
 20
379.254
 30
0.0
 11
663.977
 21
378.643
 31
0.0
  0
LINE
  8
0
 62
     0
 10
663.977
 20
378.643
 30
0.0
 11
663.275
 21
376.837
 31
0.0
  0
LINE
  8
0
 62
     0
 10
663.275
 20
376.837
 30
0.0
 11
662.079
 21
374.269
 31
0.0
  0
LINE
  8
0
 62
     0
 10
662.079
 20
374.269
 30
0.0
 11
660.407
 21
371.193
 31
0.0
  0
LINE
  8
0
 62
     0
 10
660.407
 20
371.193
 30
0.0
 11
658.675
 21
368.236
 31
0.0
  0
LINE
  8
0
 62
     0
 10
658.675
 20
368.236
 30
0.0
 11
658.082
 21
367.259
 31
0.0
  0
LINE
  8
0
 62
     0
 10
658.082
 20
367.259
 30
0.0
 11
657.691
 21
366.617
 31
0.0
  0
LINE
  8
0
 62
     0
 10
657.691
 20
366.617
 30
0.0
 11
656.572
 21
364.642
 31
0.0
  0
LINE
  8
0
 62
     0
 10
656.572
 20
364.642
 30
0.0
 11
654.787
 21
361.343
 31
0.0
  0
LINE
  8
0
 62
     0
 10
654.787
 20
361.343
 30
0.0
 11
652.928
 21
357.745
 31
0.0
  0
LINE
  8
0
 62
     0
 10
652.928
 20
357.745
 30
0.0
 11
651.619
 21
355.11
 31
0.0
  0
LINE
  8
0
 62
     0
 10
651.619
 20
355.11
 30
0.0
 11
651.196
 21
354.224
 31
0.0
  0
LINE
  8
0
 62
     0
 10
651.196
 20
354.224
 30
0.0
 11
643.982
 21
339.261
 31
0.0
  0
LINE
  8
0
 62
     0
 10
643.982
 20
339.261
 30
0.0
 11
643.982
 21
339.091
 31
0.0
  0
LINE
  8
0
 62
     0
 10
643.982
 20
339.091
 30
0.0
 11
643.717
 21
338.578
 31
0.0
  0
LINE
  8
0
 62
     0
 10
643.717
 20
338.578
 30
0.0
 11
643.026
 21
337.005
 31
0.0
  0
LINE
  8
0
 62
     0
 10
643.026
 20
337.005
 30
0.0
 11
642.048
 21
334.861
 31
0.0
  0
LINE
  8
0
 62
     0
 10
642.048
 20
334.861
 30
0.0
 11
641.212
 21
333.059
 31
0.0
  0
LINE
  8
0
 62
     0
 10
641.212
 20
333.059
 30
0.0
 11
640.927
 21
332.461
 31
0.0
  0
LINE
  8
0
 62
     0
 10
640.927
 20
332.461
 30
0.0
 11
640.609
 21
331.628
 31
0.0
  0
LINE
  8
0
 62
     0
 10
640.609
 20
331.628
 30
0.0
 11
639.526
 21
329.169
 31
0.0
  0
LINE
  8
0
 62
     0
 10
639.526
 20
329.169
 30
0.0
 11
637.872
 21
325.484
 31
0.0
  0
LINE
  8
0
 62
     0
 10
637.872
 20
325.484
 30
0.0
 11
636.104
 21
321.068
 31
0.0
  0
LINE
  8
0
 62
     0
 10
636.104
 20
321.068
 30
0.0
 11
634.746
 21
316.969
 31
0.0
  0
LINE
  8
0
 62
     0
 10
634.746
 20
316.969
 30
0.0
 11
634.369
 21
315.583
 31
0.0
  0
LINE
  8
0
 62
     0
 10
634.369
 20
315.583
 30
0.0
 11
634.072
 21
314.138
 31
0.0
  0
LINE
  8
0
 62
     0
 10
634.072
 20
314.138
 30
0.0
 11
633.24
 21
309.787
 31
0.0
  0
LINE
  8
0
 62
     0
 10
633.24
 20
309.787
 30
0.0
 11
632.643
 21
304.713
 31
0.0
  0
LINE
  8
0
 62
     0
 10
632.643
 20
304.713
 30
0.0
 11
632.88
 21
299.89
 31
0.0
  0
LINE
  8
0
 62
     0
 10
632.88
 20
299.89
 30
0.0
 11
633.779
 21
296.059
 31
0.0
  0
LINE
  8
0
 62
     0
 10
633.779
 20
296.059
 30
0.0
 11
634.242
 21
294.844
 31
0.0
  0
LINE
  8
0
 62
     0
 10
634.242
 20
294.844
 30
0.0
 11
634.425
 21
294.352
 31
0.0
  0
LINE
  8
0
 62
     0
 10
634.425
 20
294.352
 30
0.0
 11
635.307
 21
292.994
 31
0.0
  0
LINE
  8
0
 62
     0
 10
635.307
 20
292.994
 30
0.0
 11
637.064
 21
290.955
 31
0.0
  0
LINE
  8
0
 62
     0
 10
637.064
 20
290.955
 30
0.0
 11
639.226
 21
289.019
 31
0.0
  0
LINE
  8
0
 62
     0
 10
639.226
 20
289.019
 30
0.0
 11
640.909
 21
287.81
 31
0.0
  0
LINE
  8
0
 62
     0
 10
640.909
 20
287.81
 30
0.0
 11
641.509
 21
287.477
 31
0.0
  0
LINE
  8
0
 62
     0
 10
641.509
 20
287.477
 30
0.0
 11
641.745
 21
287.314
 31
0.0
  0
LINE
  8
0
 62
     0
 10
641.745
 20
287.314
 30
0.0
 11
642.447
 21
286.822
 31
0.0
  0
LINE
  8
0
 62
     0
 10
642.447
 20
286.822
 30
0.0
 11
643.241
 21
286.231
 31
0.0
  0
LINE
  8
0
 62
     0
 10
643.241
 20
286.231
 30
0.0
 11
644.084
 21
285.535
 31
0.0
  0
LINE
  8
0
 62
     0
 10
644.084
 20
285.535
 30
0.0
 11
644.91
 21
284.807
 31
0.0
  0
LINE
  8
0
 62
     0
 10
644.91
 20
284.807
 30
0.0
 11
645.178
 21
284.561
 31
0.0
  0
LINE
  8
0
 62
     0
 10
645.178
 20
284.561
 30
0.0
 11
644.705
 21
284.609
 31
0.0
  0
LINE
  8
0
 62
     0
 10
644.705
 20
284.609
 30
0.0
 11
643.297
 21
284.814
 31
0.0
  0
LINE
  8
0
 62
     0
 10
643.297
 20
284.814
 30
0.0
 11
641.84
 21
285.155
 31
0.0
  0
LINE
  8
0
 62
     0
 10
641.84
 20
285.155
 30
0.0
 11
640.694
 21
285.601
 31
0.0
  0
LINE
  8
0
 62
     0
 10
640.694
 20
285.601
 30
0.0
 11
639.752
 21
286.174
 31
0.0
  0
LINE
  8
0
 62
     0
 10
639.752
 20
286.174
 30
0.0
 11
638.905
 21
286.895
 31
0.0
  0
LINE
  8
0
 62
     0
 10
638.905
 20
286.895
 30
0.0
 11
638.041
 21
287.781
 31
0.0
  0
LINE
  8
0
 62
     0
 10
638.041
 20
287.781
 30
0.0
 11
637.053
 21
288.855
 31
0.0
  0
LINE
  8
0
 62
     0
 10
637.053
 20
288.855
 30
0.0
 11
636.139
 21
289.819
 31
0.0
  0
LINE
  8
0
 62
     0
 10
636.139
 20
289.819
 30
0.0
 11
635.829
 21
290.132
 31
0.0
  0
LINE
  8
0
 62
     0
 10
635.829
 20
290.132
 30
0.0
 11
592.917
 21
285.831
 31
0.0
  0
LINE
  8
0
 62
     0
 10
592.917
 20
285.831
 30
0.0
 11
592.917
 21
285.831
 31
0.0
  0
LINE
  8
0
 62
     0
 10
592.917
 20
285.831
 30
0.0
 11
592.508
 21
285.775
 31
0.0
  0
LINE
  8
0
 62
     0
 10
592.508
 20
285.775
 30
0.0
 11
591.414
 21
285.623
 31
0.0
  0
LINE
  8
0
 62
     0
 10
591.414
 20
285.623
 30
0.0
 11
589.837
 21
285.408
 31
0.0
  0
LINE
  8
0
 62
     0
 10
589.837
 20
285.408
 30
0.0
 11
587.975
 21
285.16
 31
0.0
  0
LINE
  8
0
 62
     0
 10
587.975
 20
285.16
 30
0.0
 11
586.027
 21
284.908
 31
0.0
  0
LINE
  8
0
 62
     0
 10
586.027
 20
284.908
 30
0.0
 11
584.189
 21
284.682
 31
0.0
  0
LINE
  8
0
 62
     0
 10
584.189
 20
284.682
 30
0.0
 11
582.669
 21
284.514
 31
0.0
  0
LINE
  8
0
 62
     0
 10
582.669
 20
284.514
 30
0.0
 11
581.914
 21
284.442
 31
0.0
  0
LINE
  8
0
 62
     0
 10
581.914
 20
284.442
 30
0.0
 11
581.664
 21
284.431
 31
0.0
  0
LINE
  8
0
 62
     0
 10
581.664
 20
284.431
 30
0.0
 11
580.782
 21
284.395
 31
0.0
  0
LINE
  8
0
 62
     0
 10
580.782
 20
284.395
 30
0.0
 11
574.435
 21
283.366
 31
0.0
  0
LINE
  8
0
 62
     0
 10
574.435
 20
283.366
 30
0.0
 11
569.143
 21
282.564
 31
0.0
  0
LINE
  8
0
 62
     0
 10
569.143
 20
282.564
 30
0.0
 11
568.516
 21
282.469
 31
0.0
  0
LINE
  8
0
 62
     0
 10
568.516
 20
282.469
 30
0.0
 11
566.628
 21
282.184
 31
0.0
  0
LINE
  8
0
 62
     0
 10
566.628
 20
282.184
 30
0.0
 11
563.697
 21
281.741
 31
0.0
  0
LINE
  8
0
 62
     0
 10
563.697
 20
281.741
 30
0.0
 11
560.709
 21
281.291
 31
0.0
  0
LINE
  8
0
 62
     0
 10
560.709
 20
281.291
 30
0.0
 11
558.698
 21
280.988
 31
0.0
  0
LINE
  8
0
 62
     0
 10
558.698
 20
280.988
 30
0.0
 11
558.031
 21
280.887
 31
0.0
  0
LINE
  8
0
 62
     0
 10
558.031
 20
280.887
 30
0.0
 11
556.44
 21
280.648
 31
0.0
  0
LINE
  8
0
 62
     0
 10
556.44
 20
280.648
 30
0.0
 11
551.677
 21
279.908
 31
0.0
  0
LINE
  8
0
 62
     0
 10
551.677
 20
279.908
 30
0.0
 11
545.183
 21
278.861
 31
0.0
  0
LINE
  8
0
 62
     0
 10
545.183
 20
278.861
 30
0.0
 11
538.984
 21
277.818
 31
0.0
  0
LINE
  8
0
 62
     0
 10
538.984
 20
277.818
 30
0.0
 11
534.878
 21
277.1
 31
0.0
  0
LINE
  8
0
 62
     0
 10
534.878
 20
277.1
 30
0.0
 11
533.513
 21
276.85
 31
0.0
  0
LINE
  8
0
 62
     0
 10
533.513
 20
276.85
 30
0.0
 11
532.804
 21
276.722
 31
0.0
  0
LINE
  8
0
 62
     0
 10
532.804
 20
276.722
 30
0.0
 11
529.167
 21
276.06
 31
0.0
  0
LINE
  8
0
 62
     0
 10
529.167
 20
276.06
 30
0.0
 11
525.974
 21
275.477
 31
0.0
  0
LINE
  8
0
 62
     0
 10
525.974
 20
275.477
 30
0.0
 11
525.491
 21
275.389
 31
0.0
  0
LINE
  8
0
 62
     0
 10
525.491
 20
275.389
 30
0.0
 11
528.493
 21
278.183
 31
0.0
  0
LINE
  8
0
 62
     0
 10
528.493
 20
278.183
 30
0.0
 11
537.02
 21
287.079
 31
0.0
  0
LINE
  8
0
 62
     0
 10
537.02
 20
287.079
 30
0.0
 11
547.455
 21
299.638
 31
0.0
  0
LINE
  8
0
 62
     0
 10
547.455
 20
299.638
 30
0.0
 11
556.757
 21
312.988
 31
0.0
  0
LINE
  8
0
 62
     0
 10
556.757
 20
312.988
 30
0.0
 11
564.885
 21
327.053
 31
0.0
  0
LINE
  8
0
 62
     0
 10
564.885
 20
327.053
 30
0.0
 11
571.8
 21
341.753
 31
0.0
  0
LINE
  8
0
 62
     0
 10
571.8
 20
341.753
 30
0.0
 11
577.458
 21
357.011
 31
0.0
  0
LINE
  8
0
 62
     0
 10
577.458
 20
357.011
 30
0.0
 11
581.819
 21
372.749
 31
0.0
  0
LINE
  8
0
 62
     0
 10
581.819
 20
372.749
 30
0.0
 11
584.256
 21
384.828
 31
0.0
  0
LINE
  8
0
 62
     0
 10
584.256
 20
384.828
 30
0.0
 11
584.842
 21
388.885
 31
0.0
  0
LINE
  8
0
 62
     0
 10
584.842
 20
388.885
 30
0.0
 11
584.863
 21
388.994
 31
0.0
  0
LINE
  8
0
 62
     0
 10
584.863
 20
388.994
 30
0.0
 11
585.075
 21
390.394
 31
0.0
  0
LINE
  8
0
 62
     0
 10
585.075
 20
390.394
 30
0.0
 11
585.093
 21
390.553
 31
0.0
  0
LINE
  8
0
 62
     0
 10
585.093
 20
390.553
 30
0.0
 11
585.1
 21
390.645
 31
0.0
  0
LINE
  8
0
 62
     0
 10
585.1
 20
390.645
 30
0.0
 11
585.135
 21
390.973
 31
0.0
  0
LINE
  8
0
 62
     0
 10
585.135
 20
390.973
 30
0.0
 11
585.195
 21
391.594
 31
0.0
  0
LINE
  8
0
 62
     0
 10
585.195
 20
391.594
 30
0.0
 11
585.265
 21
392.278
 31
0.0
  0
LINE
  8
0
 62
     0
 10
585.265
 20
392.278
 30
0.0
 11
585.311
 21
392.737
 31
0.0
  0
LINE
  8
0
 62
     0
 10
585.311
 20
392.737
 30
0.0
 11
585.329
 21
392.889
 31
0.0
  0
LINE
  8
0
 62
     0
 10
585.329
 20
392.889
 30
0.0
 11
585.576
 21
394.79
 31
0.0
  0
LINE
  8
0
 62
     0
 10
585.576
 20
394.79
 30
0.0
 11
586.479
 21
404.34
 31
0.0
  0
LINE
  8
0
 62
     0
 10
586.479
 20
404.34
 30
0.0
 11
586.92
 21
413.921
 31
0.0
  0
LINE
  8
0
 62
     0
 10
586.92
 20
413.921
 30
0.0
 11
586.941
 21
415.837
 31
0.0
  0
LINE
  8
0
 62
     0
 10
586.941
 20
415.837
 30
0.0
 11
586.934
 21
417.657
 31
0.0
  0
LINE
  8
0
 62
     0
 10
586.934
 20
417.657
 30
0.0
 11
585.805
 21
435.815
 31
0.0
  0
LINE
  8
0
 62
     0
 10
585.805
 20
435.815
 30
0.0
 11
585.593
 21
437.621
 31
0.0
  0
LINE
  8
0
 62
     0
 10
585.593
 20
437.621
 30
0.0
 11
585.523
 21
438.482
 31
0.0
  0
LINE
  8
0
 62
     0
 10
585.523
 20
438.482
 30
0.0
 11
585.138
 21
441.935
 31
0.0
  0
LINE
  8
0
 62
     0
 10
585.138
 20
441.935
 30
0.0
 11
584.701
 21
444.01
 31
0.0
  0
LINE
  8
0
 62
     0
 10
584.701
 20
444.01
 30
0.0
 11
584.609
 21
444.182
 31
0.0
  0
LINE
  8
0
 62
     0
 10
584.609
 20
444.182
 30
0.0
 11
584.609
 21
444.186
 31
0.0
  0
LINE
  8
0
 62
     0
 10
584.609
 20
444.186
 30
0.0
 11
584.599
 21
444.207
 31
0.0
  0
LINE
  8
0
 62
     0
 10
584.599
 20
444.207
 30
0.0
 11
584.599
 21
444.211
 31
0.0
  0
LINE
  8
0
 62
     0
 10
584.599
 20
444.211
 30
0.0
 11
584.398
 21
445.555
 31
0.0
  0
LINE
  8
0
 62
     0
 10
584.398
 20
445.555
 30
0.0
 11
581.847
 21
458.893
 31
0.0
  0
LINE
  8
0
 62
     0
 10
581.847
 20
458.893
 30
0.0
 11
581.537
 21
460.216
 31
0.0
  0
LINE
  8
0
 62
     0
 10
581.537
 20
460.216
 30
0.0
 11
581.438
 21
460.65
 31
0.0
  0
LINE
  8
0
 62
     0
 10
581.438
 20
460.65
 30
0.0
 11
580.961
 21
462.636
 31
0.0
  0
LINE
  8
0
 62
     0
 10
580.961
 20
462.636
 30
0.0
 11
580.535
 21
464.294
 31
0.0
  0
LINE
  8
0
 62
     0
 10
580.535
 20
464.294
 30
0.0
 11
580.457
 21
464.559
 31
0.0
  0
LINE
  8
0
 62
     0
 10
580.457
 20
464.559
 30
0.0
 11
580.439
 21
464.626
 31
0.0
  0
LINE
  8
0
 62
     0
 10
580.439
 20
464.626
 30
0.0
 11
580.274
 21
465.226
 31
0.0
  0
LINE
  8
0
 62
     0
 10
580.274
 20
465.226
 30
0.0
 11
580.073
 21
465.949
 31
0.0
  0
LINE
  8
0
 62
     0
 10
580.073
 20
465.949
 30
0.0
 11
580.041
 21
466.072
 31
0.0
  0
LINE
  8
0
 62
     0
 10
580.041
 20
466.072
 30
0.0
 11
579.448
 21
468.302
 31
0.0
  0
LINE
  8
0
 62
     0
 10
579.448
 20
468.302
 30
0.0
 11
576.016
 21
479.305
 31
0.0
  0
LINE
  8
0
 62
     0
 10
576.016
 20
479.305
 30
0.0
 11
571.955
 21
490.093
 31
0.0
  0
LINE
  8
0
 62
     0
 10
571.955
 20
490.093
 30
0.0
 11
571.052
 21
492.213
 31
0.0
  0
LINE
  8
0
 62
     0
 10
571.052
 20
492.213
 30
0.0
 11
570.96
 21
492.464
 31
0.0
  0
LINE
  8
0
 62
     0
 10
570.96
 20
492.464
 30
0.0
 11
570.308
 21
494.051
 31
0.0
  0
LINE
  8
0
 62
     0
 10
570.308
 20
494.051
 30
0.0
 11
569.493
 21
495.833
 31
0.0
  0
LINE
  8
0
 62
     0
 10
569.493
 20
495.833
 30
0.0
 11
569.323
 21
496.175
 31
0.0
  0
LINE
  8
0
 62
     0
 10
569.323
 20
496.175
 30
0.0
 11
569.154
 21
496.521
 31
0.0
  0
LINE
  8
0
 62
     0
 10
569.154
 20
496.521
 30
0.0
 11
568.65
 21
497.547
 31
0.0
  0
LINE
  8
0
 62
     0
 10
568.65
 20
497.547
 30
0.0
 11
567.962
 21
498.962
 31
0.0
  0
LINE
  8
0
 62
     0
 10
567.962
 20
498.962
 30
0.0
 11
567.341
 21
500.257
 31
0.0
  0
LINE
  8
0
 62
     0
 10
567.341
 20
500.257
 30
0.0
 11
566.981
 21
501.011
 31
0.0
  0
LINE
  8
0
 62
     0
 10
566.981
 20
501.011
 30
0.0
 11
566.864
 21
501.262
 31
0.0
  0
LINE
  8
0
 62
     0
 10
566.864
 20
501.262
 30
0.0
 11
566.752
 21
501.498
 31
0.0
  0
LINE
  8
0
 62
     0
 10
566.752
 20
501.498
 30
0.0
 11
566.406
 21
502.2
 31
0.0
  0
LINE
  8
0
 62
     0
 10
566.406
 20
502.2
 30
0.0
 11
565.799
 21
503.382
 31
0.0
  0
LINE
  8
0
 62
     0
 10
565.799
 20
503.382
 30
0.0
 11
565.079
 21
504.744
 31
0.0
  0
LINE
  8
0
 62
     0
 10
565.079
 20
504.744
 30
0.0
 11
564.487
 21
505.852
 31
0.0
  0
LINE
  8
0
 62
     0
 10
564.487
 20
505.852
 30
0.0
 11
564.286
 21
506.218
 31
0.0
  0
LINE
  8
0
 62
     0
 10
564.286
 20
506.218
 30
0.0
 11
564.092
 21
506.575
 31
0.0
  0
LINE
  8
0
 62
     0
 10
564.092
 20
506.575
 30
0.0
 11
562.116
 21
510.127
 31
0.0
  0
LINE
  8
0
 62
     0
 10
562.116
 20
510.127
 30
0.0
 11
561.915
 21
510.48
 31
0.0
  0
LINE
  8
0
 62
     0
 10
561.915
 20
510.48
 30
0.0
 11
561.732
 21
510.801
 31
0.0
  0
LINE
  8
0
 62
     0
 10
561.732
 20
510.801
 30
0.0
 11
560.885
 21
512.251
 31
0.0
  0
LINE
  8
0
 62
     0
 10
560.885
 20
512.251
 30
0.0
 11
560.179
 21
513.419
 31
0.0
  0
LINE
  8
0
 62
     0
 10
560.179
 20
513.419
 30
0.0
 11
560.066
 21
513.595
 31
0.0
  0
LINE
  8
0
 62
     0
 10
560.066
 20
513.595
 30
0.0
 11
559.999
 21
513.701
 31
0.0
  0
LINE
  8
0
 62
     0
 10
559.999
 20
513.701
 30
0.0
 11
559.498
 21
514.481
 31
0.0
  0
LINE
  8
0
 62
     0
 10
559.498
 20
514.481
 30
0.0
 11
558.913
 21
515.384
 31
0.0
  0
LINE
  8
0
 62
     0
 10
558.913
 20
515.384
 30
0.0
 11
558.804
 21
515.553
 31
0.0
  0
LINE
  8
0
 62
     0
 10
558.804
 20
515.553
 30
0.0
 11
558.479
 21
516.11
 31
0.0
  0
LINE
  8
0
 62
     0
 10
558.479
 20
516.11
 30
0.0
 11
555.103
 21
521.614
 31
0.0
  0
LINE
  8
0
 62
     0
 10
555.103
 20
521.614
 30
0.0
 11
554.757
 21
522.157
 31
0.0
  0
LINE
  8
0
 62
     0
 10
554.757
 20
522.157
 30
0.0
 11
554.69
 21
522.34
 31
0.0
  0
LINE
  8
0
 62
     0
 10
554.69
 20
522.34
 30
0.0
 11
554.581
 21
522.93
 31
0.0
  0
LINE
  8
0
 62
     0
 10
554.581
 20
522.93
 30
0.0
 11
554.62
 21
523.713
 31
0.0
  0
LINE
  8
0
 62
     0
 10
554.62
 20
523.713
 30
0.0
 11
554.842
 21
524.637
 31
0.0
  0
LINE
  8
0
 62
     0
 10
554.842
 20
524.637
 30
0.0
 11
555.121
 21
525.533
 31
0.0
  0
LINE
  8
0
 62
     0
 10
555.121
 20
525.533
 30
0.0
 11
555.216
 21
525.829
 31
0.0
  0
LINE
  8
0
 62
     0
 10
555.216
 20
525.829
 30
0.0
 11
555.353
 21
526.249
 31
0.0
  0
LINE
  8
0
 62
     0
 10
555.353
 20
526.249
 30
0.0
 11
555.71
 21
527.53
 31
0.0
  0
LINE
  8
0
 62
     0
 10
555.71
 20
527.53
 30
0.0
 11
555.974
 21
529.251
 31
0.0
  0
LINE
  8
0
 62
     0
 10
555.974
 20
529.251
 30
0.0
 11
556.08
 21
531.76
 31
0.0
  0
LINE
  8
0
 62
     0
 10
556.08
 20
531.76
 30
0.0
 11
556.098
 21
534.808
 31
0.0
  0
LINE
  8
0
 62
     0
 10
556.098
 20
534.808
 30
0.0
 11
556.094
 21
535.82
 31
0.0
  0
LINE
  8
0
 62
     0
 10
556.094
 20
535.82
 30
0.0
 11
556.091
 21
537.503
 31
0.0
  0
LINE
  8
0
 62
     0
 10
556.091
 20
537.503
 30
0.0
 11
555.935
 21
542.548
 31
0.0
  0
LINE
  8
0
 62
     0
 10
555.935
 20
542.548
 30
0.0
 11
555.491
 21
549.67
 31
0.0
  0
LINE
  8
0
 62
     0
 10
555.491
 20
549.67
 30
0.0
 11
554.757
 21
557.142
 31
0.0
  0
LINE
  8
0
 62
     0
 10
554.757
 20
557.142
 30
0.0
 11
554.027
 21
562.984
 31
0.0
  0
LINE
  8
0
 62
     0
 10
554.027
 20
562.984
 30
0.0
 11
553.745
 21
564.924
 31
0.0
  0
LINE
  8
0
 62
     0
 10
553.745
 20
564.924
 30
0.0
 11
553.716
 21
565.125
 31
0.0
  0
LINE
  8
0
 62
     0
 10
553.716
 20
565.125
 30
0.0
 11
553.681
 21
565.725
 31
0.0
  0
LINE
  8
0
 62
     0
 10
553.681
 20
565.725
 30
0.0
 11
553.798
 21
566.42
 31
0.0
  0
LINE
  8
0
 62
     0
 10
553.798
 20
566.42
 30
0.0
 11
554.15
 21
567.193
 31
0.0
  0
LINE
  8
0
 62
     0
 10
554.15
 20
567.193
 30
0.0
 11
554.627
 21
567.969
 31
0.0
  0
LINE
  8
0
 62
     0
 10
554.627
 20
567.969
 30
0.0
 11
554.796
 21
568.219
 31
0.0
  0
LINE
  8
0
 62
     0
 10
554.796
 20
568.219
 30
0.0
 11
555.138
 21
568.734
 31
0.0
  0
LINE
  8
0
 62
     0
 10
555.138
 20
568.734
 30
0.0
 11
556.115
 21
570.311
 31
0.0
  0
LINE
  8
0
 62
     0
 10
556.115
 20
570.311
 30
0.0
 11
557.318
 21
572.424
 31
0.0
  0
LINE
  8
0
 62
     0
 10
557.318
 20
572.424
 30
0.0
 11
558.278
 21
574.329
 31
0.0
  0
LINE
  8
0
 62
     0
 10
558.278
 20
574.329
 30
0.0
 11
558.754
 21
575.43
 31
0.0
  0
LINE
  8
0
 62
     0
 10
558.754
 20
575.43
 30
0.0
 11
558.874
 21
575.807
 31
0.0
  0
LINE
  8
0
 62
     0
 10
558.874
 20
575.807
 30
0.0
 11
558.934
 21
575.994
 31
0.0
  0
LINE
  8
0
 62
     0
 10
558.934
 20
575.994
 30
0.0
 11
559.322
 21
577.042
 31
0.0
  0
LINE
  8
0
 62
     0
 10
559.322
 20
577.042
 30
0.0
 11
559.728
 21
577.97
 31
0.0
  0
LINE
  8
0
 62
     0
 10
559.728
 20
577.97
 30
0.0
 11
559.795
 21
578.1
 31
0.0
  0
LINE
  8
0
 62
     0
 10
559.795
 20
578.1
 30
0.0
 11
559.89
 21
578.287
 31
0.0
  0
LINE
  8
0
 62
     0
 10
559.89
 20
578.287
 30
0.0
 11
560.102
 21
578.894
 31
0.0
  0
LINE
  8
0
 62
     0
 10
560.102
 20
578.894
 30
0.0
 11
560.264
 21
579.72
 31
0.0
  0
LINE
  8
0
 62
     0
 10
560.264
 20
579.72
 30
0.0
 11
560.264
 21
580.365
 31
0.0
  0
LINE
  8
0
 62
     0
 10
560.264
 20
580.365
 30
0.0
 11
560.119
 21
580.623
 31
0.0
  0
LINE
  8
0
 62
     0
 10
560.119
 20
580.623
 30
0.0
 11
560.074
 21
580.623
 31
0.0
  0
LINE
  8
0
 62
     0
 10
560.074
 20
580.623
 30
0.0
 11
560.038
 21
580.623
 31
0.0
  0
LINE
  8
0
 62
     0
 10
560.038
 20
580.623
 30
0.0
 11
559.936
 21
580.538
 31
0.0
  0
LINE
  8
0
 62
     0
 10
559.936
 20
580.538
 30
0.0
 11
559.629
 21
580.291
 31
0.0
  0
LINE
  8
0
 62
     0
 10
559.629
 20
580.291
 30
0.0
 11
559.17
 21
579.9
 31
0.0
  0
LINE
  8
0
 62
     0
 10
559.17
 20
579.9
 30
0.0
 11
558.581
 21
579.381
 31
0.0
  0
LINE
  8
0
 62
     0
 10
558.581
 20
579.381
 30
0.0
 11
557.876
 21
578.753
 31
0.0
  0
LINE
  8
0
 62
     0
 10
557.876
 20
578.753
 30
0.0
 11
557.082
 21
578.033
 31
0.0
  0
LINE
  8
0
 62
     0
 10
557.082
 20
578.033
 30
0.0
 11
556.211
 21
577.24
 31
0.0
  0
LINE
  8
0
 62
     0
 10
556.211
 20
577.24
 30
0.0
 11
555.519
 21
576.605
 31
0.0
  0
LINE
  8
0
 62
     0
 10
555.519
 20
576.605
 30
0.0
 11
555.29
 21
576.389
 31
0.0
  0
LINE
  8
0
 62
     0
 10
555.29
 20
576.389
 30
0.0
 11
555.057
 21
576.178
 31
0.0
  0
LINE
  8
0
 62
     0
 10
555.057
 20
576.178
 30
0.0
 11
554.362
 21
575.539
 31
0.0
  0
LINE
  8
0
 62
     0
 10
554.362
 20
575.539
 30
0.0
 11
553.477
 21
574.749
 31
0.0
  0
LINE
  8
0
 62
     0
 10
553.477
 20
574.749
 30
0.0
 11
552.651
 21
574.029
 31
0.0
  0
LINE
  8
0
 62
     0
 10
552.651
 20
574.029
 30
0.0
 11
551.914
 21
573.401
 31
0.0
  0
LINE
  8
0
 62
     0
 10
551.914
 20
573.401
 30
0.0
 11
551.279
 21
572.883
 31
0.0
  0
LINE
  8
0
 62
     0
 10
551.279
 20
572.883
 30
0.0
 11
550.767
 21
572.491
 31
0.0
  0
LINE
  8
0
 62
     0
 10
550.767
 20
572.491
 30
0.0
 11
550.404
 21
572.244
 31
0.0
  0
LINE
  8
0
 62
     0
 10
550.404
 20
572.244
 30
0.0
 11
550.259
 21
572.156
 31
0.0
  0
LINE
  8
0
 62
     0
 10
550.259
 20
572.156
 30
0.0
 11
550.21
 21
572.156
 31
0.0
  0
LINE
  8
0
 62
     0
 10
550.21
 20
572.156
 30
0.0
 11
550.136
 21
572.156
 31
0.0
  0
LINE
  8
0
 62
     0
 10
550.136
 20
572.156
 30
0.0
 11
549.917
 21
572.026
 31
0.0
  0
LINE
  8
0
 62
     0
 10
549.917
 20
572.026
 30
0.0
 11
549.497
 21
571.666
 31
0.0
  0
LINE
  8
0
 62
     0
 10
549.497
 20
571.666
 30
0.0
 11
549.003
 21
571.133
 31
0.0
  0
LINE
  8
0
 62
     0
 10
549.003
 20
571.133
 30
0.0
 11
548.619
 21
570.65
 31
0.0
  0
LINE
  8
0
 62
     0
 10
548.619
 20
570.65
 30
0.0
 11
548.499
 21
570.48
 31
0.0
  0
LINE
  8
0
 62
     0
 10
548.499
 20
570.48
 30
0.0
 11
548.361
 21
570.293
 31
0.0
  0
LINE
  8
0
 62
     0
 10
548.361
 20
570.293
 30
0.0
 11
547.913
 21
569.75
 31
0.0
  0
LINE
  8
0
 62
     0
 10
547.913
 20
569.75
 30
0.0
 11
547.215
 21
568.988
 31
0.0
  0
LINE
  8
0
 62
     0
 10
547.215
 20
568.988
 30
0.0
 11
546.485
 21
568.29
 31
0.0
  0
LINE
  8
0
 62
     0
 10
546.485
 20
568.29
 30
0.0
 11
545.991
 21
567.873
 31
0.0
  0
LINE
  8
0
 62
     0
 10
545.991
 20
567.873
 30
0.0
 11
545.818
 21
567.746
 31
0.0
  0
LINE
  8
0
 62
     0
 10
545.818
 20
567.746
 30
0.0
 11
545.617
 21
567.602
 31
0.0
  0
LINE
  8
0
 62
     0
 10
545.617
 20
567.602
 30
0.0
 11
544.449
 21
566.73
 31
0.0
  0
LINE
  8
0
 62
     0
 10
544.449
 20
566.73
 30
0.0
 11
543.384
 21
565.898
 31
0.0
  0
LINE
  8
0
 62
     0
 10
543.384
 20
565.898
 30
0.0
 11
543.232
 21
565.771
 31
0.0
  0
LINE
  8
0
 62
     0
 10
543.232
 20
565.771
 30
0.0
 11
542.629
 21
565.277
 31
0.0
  0
LINE
  8
0
 62
     0
 10
542.629
 20
565.277
 30
0.0
 11
540.724
 21
563.901
 31
0.0
  0
LINE
  8
0
 62
     0
 10
540.724
 20
563.901
 30
0.0
 11
537.355
 21
561.661
 31
0.0
  0
LINE
  8
0
 62
     0
 10
537.355
 20
561.661
 30
0.0
 11
533.502
 21
559.29
 31
0.0
  0
LINE
  8
0
 62
     0
 10
533.502
 20
559.29
 30
0.0
 11
530.539
 21
557.579
 31
0.0
  0
LINE
  8
0
 62
     0
 10
530.539
 20
557.579
 30
0.0
 11
529.537
 21
557.033
 31
0.0
  0
LINE
  8
0
 62
     0
 10
529.537
 20
557.033
 30
0.0
 11
526.835
 21
555.561
 31
0.0
  0
LINE
  8
0
 62
     0
 10
526.835
 20
555.561
 30
0.0
 11
520.492
 21
560.994
 31
0.0
  0
LINE
  8
0
 62
     0
 10
520.492
 20
560.994
 30
0.0
 11
520.382
 21
561.09
 31
0.0
  0
LINE
  8
0
 62
     0
 10
520.382
 20
561.09
 30
0.0
 11
519.338
 21
561.975
 31
0.0
  0
LINE
  8
0
 62
     0
 10
519.338
 20
561.975
 30
0.0
 11
519.236
 21
562.063
 31
0.0
  0
LINE
  8
0
 62
     0
 10
519.236
 20
562.063
 30
0.0
 11
518.633
 21
562.589
 31
0.0
  0
LINE
  8
0
 62
     0
 10
518.633
 20
562.589
 30
0.0
 11
512.484
 21
567.679
 31
0.0
  0
LINE
  8
0
 62
     0
 10
512.484
 20
567.679
 30
0.0
 11
511.856
 21
568.173
 31
0.0
  0
LINE
  8
0
 62
     0
 10
511.856
 20
568.173
 30
0.0
 11
511.842
 21
568.184
 31
0.0
  0
LINE
  8
0
 62
     0
 10
511.842
 20
568.184
 30
0.0
 11
511.722
 21
568.297
 31
0.0
  0
LINE
  8
0
 62
     0
 10
511.722
 20
568.297
 30
0.0
 11
511.708
 21
568.307
 31
0.0
  0
LINE
  8
0
 62
     0
 10
511.708
 20
568.307
 30
0.0
 11
511.277
 21
568.72
 31
0.0
  0
LINE
  8
0
 62
     0
 10
511.277
 20
568.72
 30
0.0
 11
508.903
 21
570.632
 31
0.0
  0
LINE
  8
0
 62
     0
 10
508.903
 20
570.632
 30
0.0
 11
506.211
 21
572.368
 31
0.0
  0
LINE
  8
0
 62
     0
 10
506.211
 20
572.368
 30
0.0
 11
505.626
 21
572.685
 31
0.0
  0
LINE
  8
0
 62
     0
 10
505.626
 20
572.685
 30
0.0
 11
505.601
 21
572.699
 31
0.0
  0
LINE
  8
0
 62
     0
 10
505.601
 20
572.699
 30
0.0
 11
505.185
 21
572.946
 31
0.0
  0
LINE
  8
0
 62
     0
 10
505.185
 20
572.946
 30
0.0
 11
505.146
 21
572.971
 31
0.0
  0
LINE
  8
0
 62
     0
 10
505.146
 20
572.971
 30
0.0
 11
504.127
 21
573.687
 31
0.0
  0
LINE
  8
0
 62
     0
 10
504.127
 20
573.687
 30
0.0
 11
493.695
 21
580.454
 31
0.0
  0
LINE
  8
0
 62
     0
 10
493.695
 20
580.454
 30
0.0
 11
492.629
 21
581.089
 31
0.0
  0
LINE
  8
0
 62
     0
 10
492.629
 20
581.089
 30
0.0
 11
491.998
 21
581.484
 31
0.0
  0
LINE
  8
0
 62
     0
 10
491.998
 20
581.484
 30
0.0
 11
489.197
 21
583.166
 31
0.0
  0
LINE
  8
0
 62
     0
 10
489.197
 20
583.166
 30
0.0
 11
486.332
 21
584.761
 31
0.0
  0
LINE
  8
0
 62
     0
 10
486.332
 20
584.761
 30
0.0
 11
485.673
 21
585.114
 31
0.0
  0
LINE
  8
0
 62
     0
 10
485.673
 20
585.114
 30
0.0
 11
485.613
 21
585.145
 31
0.0
  0
LINE
  8
0
 62
     0
 10
485.613
 20
585.145
 30
0.0
 11
484.999
 21
585.47
 31
0.0
  0
LINE
  8
0
 62
     0
 10
484.999
 20
585.47
 30
0.0
 11
484.939
 21
585.502
 31
0.0
  0
LINE
  8
0
 62
     0
 10
484.939
 20
585.502
 30
0.0
 11
484.424
 21
585.773
 31
0.0
  0
LINE
  8
0
 62
     0
 10
484.424
 20
585.773
 30
0.0
 11
479.245
 21
588.419
 31
0.0
  0
LINE
  8
0
 62
     0
 10
479.245
 20
588.419
 30
0.0
 11
478.723
 21
588.673
 31
0.0
  0
LINE
  8
0
 62
     0
 10
478.723
 20
588.673
 30
0.0
 11
478.13
 21
588.966
 31
0.0
  0
LINE
  8
0
 62
     0
 10
478.13
 20
588.966
 30
0.0
 11
476.349
 21
589.823
 31
0.0
  0
LINE
  8
0
 62
     0
 10
476.349
 20
589.823
 30
0.0
 11
474.243
 21
590.808
 31
0.0
  0
LINE
  8
0
 62
     0
 10
474.243
 20
590.808
 30
0.0
 11
472.521
 21
591.566
 31
0.0
  0
LINE
  8
0
 62
     0
 10
472.521
 20
591.566
 30
0.0
 11
471.611
 21
591.936
 31
0.0
  0
LINE
  8
0
 62
     0
 10
471.611
 20
591.936
 30
0.0
 11
471.301
 21
592.042
 31
0.0
  0
LINE
  8
0
 62
     0
 10
471.301
 20
592.042
 30
0.0
 11
471.269
 21
592.056
 31
0.0
  0
LINE
  8
0
 62
     0
 10
471.269
 20
592.056
 30
0.0
 11
470.796
 21
592.226
 31
0.0
  0
LINE
  8
0
 62
     0
 10
470.796
 20
592.226
 30
0.0
 11
470.747
 21
592.243
 31
0.0
  0
LINE
  8
0
 62
     0
 10
470.747
 20
592.243
 30
0.0
 11
466.256
 21
594.198
 31
0.0
  0
LINE
  8
0
 62
     0
 10
466.256
 20
594.198
 30
0.0
 11
452.388
 21
599.144
 31
0.0
  0
LINE
  8
0
 62
     0
 10
452.388
 20
599.144
 30
0.0
 11
433.472
 21
604.125
 31
0.0
  0
LINE
  8
0
 62
     0
 10
433.472
 20
604.125
 30
0.0
 11
414.147
 21
607.159
 31
0.0
  0
LINE
  8
0
 62
     0
 10
414.147
 20
607.159
 30
0.0
 11
399.461
 21
608.203
 31
0.0
  0
LINE
  8
0
 62
     0
 10
399.461
 20
608.203
 30
0.0
 11
394.564
 21
608.214
 31
0.0
  0
LINE
  8
0
 62
     0
 10
394.564
 20
608.214
 30
0.0
 11
390.165
 21
608.21
 31
0.0
  0
LINE
  8
0
 62
     0
 10
390.165
 20
608.21
 30
0.0
 11
376.964
 21
607.381
 31
0.0
  0
LINE
  8
0
 62
     0
 10
376.964
 20
607.381
 30
0.0
 11
359.622
 21
604.964
 31
0.0
  0
LINE
  8
0
 62
     0
 10
359.622
 20
604.964
 30
0.0
 11
342.641
 21
600.996
 31
0.0
  0
LINE
  8
0
 62
     0
 10
342.641
 20
600.996
 30
0.0
 11
326.12
 21
595.517
 31
0.0
  0
LINE
  8
0
 62
     0
 10
326.12
 20
595.517
 30
0.0
 11
310.16
 21
588.567
 31
0.0
  0
LINE
  8
0
 62
     0
 10
310.16
 20
588.567
 30
0.0
 11
294.866
 21
580.189
 31
0.0
  0
LINE
  8
0
 62
     0
 10
294.866
 20
580.189
 30
0.0
 11
280.337
 21
570.417
 31
0.0
  0
LINE
  8
0
 62
     0
 10
280.337
 20
570.417
 30
0.0
 11
269.956
 21
562.222
 31
0.0
  0
LINE
  8
0
 62
     0
 10
269.956
 20
562.222
 30
0.0
 11
266.675
 21
559.29
 31
0.0
  0
LINE
  8
0
 62
     0
 10
266.675
 20
559.29
 30
0.0
 11
266.586
 21
559.312
 31
0.0
  0
LINE
  8
0
 62
     0
 10
266.586
 20
559.312
 30
0.0
 11
266.029
 21
559.506
 31
0.0
  0
LINE
  8
0
 62
     0
 10
266.029
 20
559.506
 30
0.0
 11
265.275
 21
559.816
 31
0.0
  0
LINE
  8
0
 62
     0
 10
265.275
 20
559.816
 30
0.0
 11
265.088
 21
559.897
 31
0.0
  0
LINE
  8
0
 62
     0
 10
265.088
 20
559.897
 30
0.0
 11
264.531
 21
560.137
 31
0.0
  0
LINE
  8
0
 62
     0
 10
264.531
 20
560.137
 30
0.0
 11
262.906
 21
560.966
 31
0.0
  0
LINE
  8
0
 62
     0
 10
262.906
 20
560.966
 30
0.0
 11
260.737
 21
562.303
 31
0.0
  0
LINE
  8
0
 62
     0
 10
260.737
 20
562.303
 30
0.0
 11
258.386
 21
564.039
 31
0.0
  0
LINE
  8
0
 62
     0
 10
258.386
 20
564.039
 30
0.0
 11
256.332
 21
565.729
 31
0.0
  0
LINE
  8
0
 62
     0
 10
256.332
 20
565.729
 30
0.0
 11
255.663
 21
566.311
 31
0.0
  0
LINE
  8
0
 62
     0
 10
255.663
 20
566.311
 30
0.0
 11
254.978
 21
566.991
 31
0.0
  0
LINE
  8
0
 62
     0
 10
254.978
 20
566.991
 30
0.0
 11
252.929
 21
569.045
 31
0.0
  0
LINE
  8
0
 62
     0
 10
252.929
 20
569.045
 30
0.0
 11
250.577
 21
571.394
 31
0.0
  0
LINE
  8
0
 62
     0
 10
250.577
 20
571.394
 30
0.0
 11
248.579
 21
573.359
 31
0.0
  0
LINE
  8
0
 62
     0
 10
248.579
 20
573.359
 30
0.0
 11
246.907
 21
574.929
 31
0.0
  0
LINE
  8
0
 62
     0
 10
246.907
 20
574.929
 30
0.0
 11
245.536
 21
576.111
 31
0.0
  0
LINE
  8
0
 62
     0
 10
245.536
 20
576.111
 30
0.0
 11
244.439
 21
576.894
 31
0.0
  0
LINE
  8
0
 62
     0
 10
244.439
 20
576.894
 30
0.0
 11
243.587
 21
577.279
 31
0.0
  0
LINE
  8
0
 62
     0
 10
243.587
 20
577.279
 30
0.0
 11
242.955
 21
577.261
 31
0.0
  0
LINE
  8
0
 62
     0
 10
242.955
 20
577.261
 30
0.0
 11
242.515
 21
576.838
 31
0.0
  0
LINE
  8
0
 62
     0
 10
242.515
 20
576.838
 30
0.0
 11
242.24
 21
576.012
 31
0.0
  0
LINE
  8
0
 62
     0
 10
242.24
 20
576.012
 30
0.0
 11
242.103
 21
574.774
 31
0.0
  0
LINE
  8
0
 62
     0
 10
242.103
 20
574.774
 30
0.0
 11
242.077
 21
573.123
 31
0.0
  0
LINE
  8
0
 62
     0
 10
242.077
 20
573.123
 30
0.0
 11
242.135
 21
571.059
 31
0.0
  0
LINE
  8
0
 62
     0
 10
242.135
 20
571.059
 30
0.0
 11
242.249
 21
568.575
 31
0.0
  0
LINE
  8
0
 62
     0
 10
242.249
 20
568.575
 30
0.0
 11
242.394
 21
565.672
 31
0.0
  0
LINE
  8
0
 62
     0
 10
242.394
 20
565.672
 30
0.0
 11
242.51
 21
563.174
 31
0.0
  0
LINE
  8
0
 62
     0
 10
242.51
 20
563.174
 30
0.0
 11
242.543
 21
562.342
 31
0.0
  0
LINE
  8
0
 62
     0
 10
242.543
 20
562.342
 30
0.0
 11
241.897
 21
547.871
 31
0.0
  0
LINE
  8
0
 62
     0
 10
241.897
 20
547.871
 30
0.0
 11
241.826
 21
547.074
 31
0.0
  0
LINE
  8
0
 62
     0
 10
241.826
 20
547.074
 30
0.0
 11
241.583
 21
544.678
 31
0.0
  0
LINE
  8
0
 62
     0
 10
241.583
 20
544.678
 30
0.0
 11
241.256
 21
542.361
 31
0.0
  0
LINE
  8
0
 62
     0
 10
241.256
 20
542.361
 30
0.0
 11
240.844
 21
540.508
 31
0.0
  0
LINE
  8
0
 62
     0
 10
240.844
 20
540.508
 30
0.0
 11
240.43
 21
539.157
 31
0.0
  0
LINE
  8
0
 62
     0
 10
240.43
 20
539.157
 30
0.0
 11
240.273
 21
538.716
 31
0.0
  0
LINE
  8
0
 62
     0
 10
240.273
 20
538.716
 30
0.0
 11
239.999
 21
537.944
 31
0.0
  0
LINE
  8
0
 62
     0
 10
239.999
 20
537.944
 30
0.0
 11
239.19
 21
535.626
 31
0.0
  0
LINE
  8
0
 62
     0
 10
239.19
 20
535.626
 30
0.0
 11
238.683
 21
533.915
 31
0.0
  0
LINE
  8
0
 62
     0
 10
238.683
 20
533.915
 30
0.0
 11
238.61
 21
532.934
 31
0.0
  0
LINE
  8
0
 62
     0
 10
238.61
 20
532.934
 30
0.0
 11
238.767
 21
532.253
 31
0.0
  0
LINE
  8
0
 62
     0
 10
238.767
 20
532.253
 30
0.0
 11
238.835
 21
532.031
 31
0.0
  0
LINE
  8
0
 62
     0
 10
238.835
 20
532.031
 30
0.0
 11
238.923
 21
531.738
 31
0.0
  0
LINE
  8
0
 62
     0
 10
238.923
 20
531.738
 30
0.0
 11
239.066
 21
530.211
 31
0.0
  0
LINE
  8
0
 62
     0
 10
239.066
 20
530.211
 30
0.0
 11
238.774
 21
528.5
 31
0.0
  0
LINE
  8
0
 62
     0
 10
238.774
 20
528.5
 30
0.0
 11
238.645
 21
528.112
 31
0.0
  0
LINE
  8
0
 62
     0
 10
238.645
 20
528.112
 30
0.0
 11
236.438
 21
525.06
 31
0.0
  0
LINE
  8
0
 62
     0
 10
236.438
 20
525.06
 30
0.0
 11
230.3
 21
515.56
 31
0.0
  0
LINE
  8
0
 62
     0
 10
230.3
 20
515.56
 30
0.0
 11
222.995
 21
502.454
 31
0.0
  0
LINE
  8
0
 62
     0
 10
222.995
 20
502.454
 30
0.0
 11
216.753
 21
488.858
 31
0.0
  0
LINE
  8
0
 62
     0
 10
216.753
 20
488.858
 30
0.0
 11
211.591
 21
474.839
 31
0.0
  0
LINE
  8
0
 62
     0
 10
211.591
 20
474.839
 30
0.0
 11
207.532
 21
460.463
 31
0.0
  0
LINE
  8
0
 62
     0
 10
207.532
 20
460.463
 30
0.0
 11
204.599
 21
445.798
 31
0.0
  0
LINE
  8
0
 62
     0
 10
204.599
 20
445.798
 30
0.0
 11
202.81
 21
430.9
 31
0.0
  0
LINE
  8
0
 62
     0
 10
202.81
 20
430.9
 30
0.0
 11
202.195
 21
419.604
 31
0.0
  0
LINE
  8
0
 62
     0
 10
202.195
 20
419.604
 30
0.0
 11
202.189
 21
415.837
 31
0.0
  0
LINE
  8
0
 62
     0
 10
202.189
 20
415.837
 30
0.0
 11
202.194
 21
412.559
 31
0.0
  0
LINE
  8
0
 62
     0
 10
202.194
 20
412.559
 30
0.0
 11
202.658
 21
402.717
 31
0.0
  0
LINE
  8
0
 62
     0
 10
202.658
 20
402.717
 30
0.0
 11
204.008
 21
389.77
 31
0.0
  0
LINE
  8
0
 62
     0
 10
204.008
 20
389.77
 30
0.0
 11
206.211
 21
377.024
 31
0.0
  0
LINE
  8
0
 62
     0
 10
206.211
 20
377.024
 30
0.0
 11
209.249
 21
364.525
 31
0.0
  0
LINE
  8
0
 62
     0
 10
209.249
 20
364.525
 30
0.0
 11
213.1
 21
352.312
 31
0.0
  0
LINE
  8
0
 62
     0
 10
213.1
 20
352.312
 30
0.0
 11
217.738
 21
340.415
 31
0.0
  0
LINE
  8
0
 62
     0
 10
217.738
 20
340.415
 30
0.0
 11
223.144
 21
328.874
 31
0.0
  0
LINE
  8
0
 62
     0
 10
223.144
 20
328.874
 30
0.0
 11
229.296
 21
317.728
 31
0.0
  0
LINE
  8
0
 62
     0
 10
229.296
 20
317.728
 30
0.0
 11
236.171
 21
307.012
 31
0.0
  0
LINE
  8
0
 62
     0
 10
236.171
 20
307.012
 30
0.0
 11
243.746
 21
296.763
 31
0.0
  0
LINE
  8
0
 62
     0
 10
243.746
 20
296.763
 30
0.0
 11
251.999
 21
287.021
 31
0.0
  0
LINE
  8
0
 62
     0
 10
251.999
 20
287.021
 30
0.0
 11
260.91
 21
277.82
 31
0.0
  0
LINE
  8
0
 62
     0
 10
260.91
 20
277.82
 30
0.0
 11
270.454
 21
269.198
 31
0.0
  0
LINE
  8
0
 62
     0
 10
270.454
 20
269.198
 30
0.0
 11
280.61
 21
261.193
 31
0.0
  0
LINE
  8
0
 62
     0
 10
280.61
 20
261.193
 30
0.0
 11
291.357
 21
253.843
 31
0.0
  0
LINE
  8
0
 62
     0
 10
291.357
 20
253.843
 30
0.0
 11
299.789
 21
248.748
 31
0.0
  0
LINE
  8
0
 62
     0
 10
299.789
 20
248.748
 30
0.0
 11
302.672
 21
247.182
 31
0.0
  0
LINE
  8
0
 62
     0
 10
302.672
 20
247.182
 30
0.0
 11
302.616
 21
247.18
 31
0.0
  0
LINE
  8
0
 62
     0
 10
302.616
 20
247.18
 30
0.0
 11
302.056
 21
247.166
 31
0.0
  0
LINE
  8
0
 62
     0
 10
302.056
 20
247.166
 30
0.0
 11
301.997
 21
247.165
 31
0.0
  0
LINE
  8
0
 62
     0
 10
301.997
 20
247.165
 30
0.0
 11
301.4
 21
247.164
 31
0.0
  0
LINE
  8
0
 62
     0
 10
301.4
 20
247.164
 30
0.0
 11
299.615
 21
247.133
 31
0.0
  0
LINE
  8
0
 62
     0
 10
299.615
 20
247.133
 30
0.0
 11
295.681
 21
247.056
 31
0.0
  0
LINE
  8
0
 62
     0
 10
295.681
 20
247.056
 30
0.0
 11
290.557
 21
246.943
 31
0.0
  0
LINE
  8
0
 62
     0
 10
290.557
 20
246.943
 30
0.0
 11
284.598
 21
246.803
 31
0.0
  0
LINE
  8
0
 62
     0
 10
284.598
 20
246.803
 30
0.0
 11
278.162
 21
246.644
 31
0.0
  0
LINE
  8
0
 62
     0
 10
278.162
 20
246.644
 30
0.0
 11
271.609
 21
246.475
 31
0.0
  0
LINE
  8
0
 62
     0
 10
271.609
 20
246.475
 30
0.0
 11
265.293
 21
246.304
 31
0.0
  0
LINE
  8
0
 62
     0
 10
265.293
 20
246.304
 30
0.0
 11
261.004
 21
246.181
 31
0.0
  0
LINE
  8
0
 62
     0
 10
261.004
 20
246.181
 30
0.0
 11
259.576
 21
246.138
 31
0.0
  0
LINE
  8
0
 62
     0
 10
259.576
 20
246.138
 30
0.0
 11
257.411
 21
246.075
 31
0.0
  0
LINE
  8
0
 62
     0
 10
257.411
 20
246.075
 30
0.0
 11
250.919
 21
245.877
 31
0.0
  0
LINE
  8
0
 62
     0
 10
250.919
 20
245.877
 30
0.0
 11
243.509
 21
245.642
 31
0.0
  0
LINE
  8
0
 62
     0
 10
243.509
 20
245.642
 30
0.0
 11
237.135
 21
245.427
 31
0.0
  0
LINE
  8
0
 62
     0
 10
237.135
 20
245.427
 30
0.0
 11
231.592
 21
245.223
 31
0.0
  0
LINE
  8
0
 62
     0
 10
231.592
 20
245.223
 30
0.0
 11
226.668
 21
245.022
 31
0.0
  0
LINE
  8
0
 62
     0
 10
226.668
 20
245.022
 30
0.0
 11
222.158
 21
244.815
 31
0.0
  0
LINE
  8
0
 62
     0
 10
222.158
 20
244.815
 30
0.0
 11
217.85
 21
244.598
 31
0.0
  0
LINE
  8
0
 62
     0
 10
217.85
 20
244.598
 30
0.0
 11
214.616
 21
244.419
 31
0.0
  0
LINE
  8
0
 62
     0
 10
214.616
 20
244.419
 30
0.0
 11
213.538
 21
244.356
 31
0.0
  0
LINE
  8
0
 62
     0
 10
213.538
 20
244.356
 30
0.0
 11
211.781
 21
244.256
 31
0.0
  0
LINE
  8
0
 62
     0
 10
211.781
 20
244.256
 30
0.0
 11
206.514
 21
243.947
 31
0.0
  0
LINE
  8
0
 62
     0
 10
206.514
 20
243.947
 30
0.0
 11
200.924
 21
243.614
 31
0.0
  0
LINE
  8
0
 62
     0
 10
200.924
 20
243.614
 30
0.0
 11
196.57
 21
243.339
 31
0.0
  0
LINE
  8
0
 62
     0
 10
196.57
 20
243.339
 30
0.0
 11
193.263
 21
243.114
 31
0.0
  0
LINE
  8
0
 62
     0
 10
193.263
 20
243.114
 30
0.0
 11
190.806
 21
242.919
 31
0.0
  0
LINE
  8
0
 62
     0
 10
190.806
 20
242.919
 30
0.0
 11
189.006
 21
242.743
 31
0.0
  0
LINE
  8
0
 62
     0
 10
189.006
 20
242.743
 30
0.0
 11
187.668
 21
242.571
 31
0.0
  0
LINE
  8
0
 62
     0
 10
187.668
 20
242.571
 30
0.0
 11
186.866
 21
242.438
 31
0.0
  0
LINE
  8
0
 62
     0
 10
186.866
 20
242.438
 30
0.0
 11
186.601
 21
242.387
 31
0.0
  0
LINE
  8
0
 62
     0
 10
186.601
 20
242.387
 30
0.0
 11
186.345
 21
242.339
 31
0.0
  0
LINE
  8
0
 62
     0
 10
186.345
 20
242.339
 30
0.0
 11
185.576
 21
242.197
 31
0.0
  0
LINE
  8
0
 62
     0
 10
185.576
 20
242.197
 30
0.0
 11
184.676
 21
242.04
 31
0.0
  0
LINE
  8
0
 62
     0
 10
184.676
 20
242.04
 30
0.0
 11
183.994
 21
241.934
 31
0.0
  0
LINE
  8
0
 62
     0
 10
183.994
 20
241.934
 30
0.0
 11
183.684
 21
241.895
 31
0.0
  0
LINE
  8
0
 62
     0
 10
183.684
 20
241.895
 30
0.0
 11
183.622
 21
241.894
 31
0.0
  0
LINE
  8
0
 62
     0
 10
183.622
 20
241.894
 30
0.0
 11
181.478
 21
244.505
 31
0.0
  0
LINE
  8
0
 62
     0
 10
181.478
 20
244.505
 30
0.0
 11
175.274
 21
252.524
 31
0.0
  0
LINE
  8
0
 62
     0
 10
175.274
 20
252.524
 30
0.0
 11
167.414
 21
263.474
 31
0.0
  0
LINE
  8
0
 62
     0
 10
167.414
 20
263.474
 30
0.0
 11
160.047
 21
274.726
 31
0.0
  0
LINE
  8
0
 62
     0
 10
160.047
 20
274.726
 30
0.0
 11
153.181
 21
286.263
 31
0.0
  0
LINE
  8
0
 62
     0
 10
153.181
 20
286.263
 30
0.0
 11
146.824
 21
298.068
 31
0.0
  0
LINE
  8
0
 62
     0
 10
146.824
 20
298.068
 30
0.0
 11
140.982
 21
310.126
 31
0.0
  0
LINE
  8
0
 62
     0
 10
140.982
 20
310.126
 30
0.0
 11
135.661
 21
322.417
 31
0.0
  0
LINE
  8
0
 62
     0
 10
135.661
 20
322.417
 30
0.0
 11
130.871
 21
334.923
 31
0.0
  0
LINE
  8
0
 62
     0
 10
130.871
 20
334.923
 30
0.0
 11
126.618
 21
347.629
 31
0.0
  0
LINE
  8
0
 62
     0
 10
126.618
 20
347.629
 30
0.0
 11
122.908
 21
360.518
 31
0.0
  0
LINE
  8
0
 62
     0
 10
122.908
 20
360.518
 30
0.0
 11
119.75
 21
373.57
 31
0.0
  0
LINE
  8
0
 62
     0
 10
119.75
 20
373.57
 30
0.0
 11
117.15
 21
386.771
 31
0.0
  0
LINE
  8
0
 62
     0
 10
117.15
 20
386.771
 30
0.0
 11
115.115
 21
400.099
 31
0.0
  0
LINE
  8
0
 62
     0
 10
115.115
 20
400.099
 30
0.0
 11
113.652
 21
413.544
 31
0.0
  0
LINE
  8
0
 62
     0
 10
113.652
 20
413.544
 30
0.0
 11
112.769
 21
427.083
 31
0.0
  0
LINE
  8
0
 62
     0
 10
112.769
 20
427.083
 30
0.0
 11
112.474
 21
437.296
 31
0.0
  0
LINE
  8
0
 62
     0
 10
112.474
 20
437.296
 30
0.0
 11
112.474
 21
440.701
 31
0.0
  0
LINE
  8
0
 62
     0
 10
112.474
 20
440.701
 30
0.0
 11
112.474
 21
444.588
 31
0.0
  0
LINE
  8
0
 62
     0
 10
112.474
 20
444.588
 30
0.0
 11
112.859
 21
456.248
 31
0.0
  0
LINE
  8
0
 62
     0
 10
112.859
 20
456.248
 30
0.0
 11
114.009
 21
471.689
 31
0.0
  0
LINE
  8
0
 62
     0
 10
114.009
 20
471.689
 30
0.0
 11
115.912
 21
486.996
 31
0.0
  0
LINE
  8
0
 62
     0
 10
115.912
 20
486.996
 30
0.0
 11
118.558
 21
502.151
 31
0.0
  0
LINE
  8
0
 62
     0
 10
118.558
 20
502.151
 30
0.0
 11
121.936
 21
517.123
 31
0.0
  0
LINE
  8
0
 62
     0
 10
121.936
 20
517.123
 30
0.0
 11
126.036
 21
531.883
 31
0.0
  0
LINE
  8
0
 62
     0
 10
126.036
 20
531.883
 30
0.0
 11
130.846
 21
546.41
 31
0.0
  0
LINE
  8
0
 62
     0
 10
130.846
 20
546.41
 30
0.0
 11
136.357
 21
560.677
 31
0.0
  0
LINE
  8
0
 62
     0
 10
136.357
 20
560.677
 30
0.0
 11
142.557
 21
574.661
 31
0.0
  0
LINE
  8
0
 62
     0
 10
142.557
 20
574.661
 30
0.0
 11
149.436
 21
588.331
 31
0.0
  0
LINE
  8
0
 62
     0
 10
149.436
 20
588.331
 30
0.0
 11
156.983
 21
601.67
 31
0.0
  0
LINE
  8
0
 62
     0
 10
156.983
 20
601.67
 30
0.0
 11
165.188
 21
614.641
 31
0.0
  0
LINE
  8
0
 62
     0
 10
165.188
 20
614.641
 30
0.0
 11
174.041
 21
627.225
 31
0.0
  0
LINE
  8
0
 62
     0
 10
174.041
 20
627.225
 30
0.0
 11
183.528
 21
639.396
 31
0.0
  0
LINE
  8
0
 62
     0
 10
183.528
 20
639.396
 30
0.0
 11
193.642
 21
651.125
 31
0.0
  0
LINE
  8
0
 62
     0
 10
193.642
 20
651.125
 30
0.0
 11
201.621
 21
659.642
 31
0.0
  0
LINE
  8
0
 62
     0
 10
201.621
 20
659.642
 30
0.0
 11
204.371
 21
662.39
 31
0.0
  0
LINE
  8
0
 62
     0
 10
204.371
 20
662.39
 30
0.0
 11
207.12
 21
665.138
 31
0.0
  0
LINE
  8
0
 62
     0
 10
207.12
 20
665.138
 30
0.0
 11
215.645
 21
673.111
 31
0.0
  0
LINE
  8
0
 62
     0
 10
215.645
 20
673.111
 30
0.0
 11
227.385
 21
683.218
 31
0.0
  0
LINE
  8
0
 62
     0
 10
227.385
 20
683.218
 30
0.0
 11
239.564
 21
692.697
 31
0.0
  0
LINE
  8
0
 62
     0
 10
239.564
 20
692.697
 30
0.0
 11
252.157
 21
701.544
 31
0.0
  0
LINE
  8
0
 62
     0
 10
252.157
 20
701.544
 30
0.0
 11
265.139
 21
709.743
 31
0.0
  0
LINE
  8
0
 62
     0
 10
265.139
 20
709.743
 30
0.0
 11
278.483
 21
717.285
 31
0.0
  0
LINE
  8
0
 62
     0
 10
278.483
 20
717.285
 30
0.0
 11
292.166
 21
724.158
 31
0.0
  0
LINE
  8
0
 62
     0
 10
292.166
 20
724.158
 30
0.0
 11
306.159
 21
730.352
 31
0.0
  0
LINE
  8
0
 62
     0
 10
306.159
 20
730.352
 30
0.0
 11
320.438
 21
735.859
 31
0.0
  0
LINE
  8
0
 62
     0
 10
320.438
 20
735.859
 30
0.0
 11
334.978
 21
740.668
 31
0.0
  0
LINE
  8
0
 62
     0
 10
334.978
 20
740.668
 30
0.0
 11
349.75
 21
744.763
 31
0.0
  0
LINE
  8
0
 62
     0
 10
349.75
 20
744.763
 30
0.0
 11
364.733
 21
748.139
 31
0.0
  0
LINE
  8
0
 62
     0
 10
364.733
 20
748.139
 30
0.0
 11
379.896
 21
750.782
 31
0.0
  0
LINE
  8
0
 62
     0
 10
379.896
 20
750.782
 30
0.0
 11
395.217
 21
752.683
 31
0.0
  0
LINE
  8
0
 62
     0
 10
395.217
 20
752.683
 30
0.0
 11
410.669
 21
753.833
 31
0.0
  0
LINE
  8
0
 62
     0
 10
410.669
 20
753.833
 30
0.0
 11
422.339
 21
754.218
 31
0.0
  0
LINE
  8
0
 62
     0
 10
422.339
 20
754.218
 30
0.0
 11
426.23
 21
754.218
 31
0.0
  0
LINE
  8
0
 62
     0
 10
391.774
 20
577.081
 30
0.0
 11
393.026
 21
577.077
 31
0.0
  0
LINE
  8
0
 62
     0
 10
393.026
 20
577.077
 30
0.0
 11
405.567
 21
576.457
 31
0.0
  0
LINE
  8
0
 62
     0
 10
405.567
 20
576.457
 30
0.0
 11
406.816
 21
576.337
 31
0.0
  0
LINE
  8
0
 62
     0
 10
406.816
 20
576.337
 30
0.0
 11
406.816
 21
576.337
 31
0.0
  0
LINE
  8
0
 62
     0
 10
406.816
 20
576.337
 30
0.0
 11
406.82
 21
576.337
 31
0.0
  0
LINE
  8
0
 62
     0
 10
406.82
 20
576.337
 30
0.0
 11
406.82
 21
576.337
 31
0.0
  0
LINE
  8
0
 62
     0
 10
406.82
 20
576.337
 30
0.0
 11
407.758
 21
576.238
 31
0.0
  0
LINE
  8
0
 62
     0
 10
407.758
 20
576.238
 30
0.0
 11
417.103
 21
574.947
 31
0.0
  0
LINE
  8
0
 62
     0
 10
417.103
 20
574.947
 30
0.0
 11
418.035
 21
574.788
 31
0.0
  0
LINE
  8
0
 62
     0
 10
418.035
 20
574.788
 30
0.0
 11
418.61
 21
574.707
 31
0.0
  0
LINE
  8
0
 62
     0
 10
418.61
 20
574.707
 30
0.0
 11
424.321
 21
573.807
 31
0.0
  0
LINE
  8
0
 62
     0
 10
424.321
 20
573.807
 30
0.0
 11
424.893
 21
573.701
 31
0.0
  0
LINE
  8
0
 62
     0
 10
424.893
 20
573.701
 30
0.0
 11
425.454
 21
573.574
 31
0.0
  0
LINE
  8
0
 62
     0
 10
425.454
 20
573.574
 30
0.0
 11
431.045
 21
572.156
 31
0.0
  0
LINE
  8
0
 62
     0
 10
431.045
 20
572.156
 30
0.0
 11
431.599
 21
572.001
 31
0.0
  0
LINE
  8
0
 62
     0
 10
431.599
 20
572.001
 30
0.0
 11
433.179
 21
571.609
 31
0.0
  0
LINE
  8
0
 62
     0
 10
433.179
 20
571.609
 30
0.0
 11
441.004
 21
569.373
 31
0.0
  0
LINE
  8
0
 62
     0
 10
441.004
 20
569.373
 30
0.0
 11
448.712
 21
566.769
 31
0.0
  0
LINE
  8
0
 62
     0
 10
448.712
 20
566.769
 30
0.0
 11
450.233
 21
566.191
 31
0.0
  0
LINE
  8
0
 62
     0
 10
450.233
 20
566.191
 30
0.0
 11
450.328
 21
566.159
 31
0.0
  0
LINE
  8
0
 62
     0
 10
450.328
 20
566.159
 30
0.0
 11
451.252
 21
565.824
 31
0.0
  0
LINE
  8
0
 62
     0
 10
451.252
 20
565.824
 30
0.0
 11
451.344
 21
565.789
 31
0.0
  0
LINE
  8
0
 62
     0
 10
451.344
 20
565.789
 30
0.0
 11
451.566
 21
565.711
 31
0.0
  0
LINE
  8
0
 62
     0
 10
451.566
 20
565.711
 30
0.0
 11
453.789
 21
564.907
 31
0.0
  0
LINE
  8
0
 62
     0
 10
453.789
 20
564.907
 30
0.0
 11
454.011
 21
564.822
 31
0.0
  0
LINE
  8
0
 62
     0
 10
454.011
 20
564.822
 30
0.0
 11
455.422
 21
564.254
 31
0.0
  0
LINE
  8
0
 62
     0
 10
455.422
 20
564.254
 30
0.0
 11
469.187
 21
557.802
 31
0.0
  0
LINE
  8
0
 62
     0
 10
469.187
 20
557.802
 30
0.0
 11
470.524
 21
557.082
 31
0.0
  0
LINE
  8
0
 62
     0
 10
470.524
 20
557.082
 30
0.0
 11
470.662
 21
557.001
 31
0.0
  0
LINE
  8
0
 62
     0
 10
470.662
 20
557.001
 30
0.0
 11
472.01
 21
556.179
 31
0.0
  0
LINE
  8
0
 62
     0
 10
472.01
 20
556.179
 30
0.0
 11
472.144
 21
556.098
 31
0.0
  0
LINE
  8
0
 62
     0
 10
472.144
 20
556.098
 30
0.0
 11
472.482
 21
555.897
 31
0.0
  0
LINE
  8
0
 62
     0
 10
472.482
 20
555.897
 30
0.0
 11
475.83
 21
553.861
 31
0.0
  0
LINE
  8
0
 62
     0
 10
475.83
 20
553.861
 30
0.0
 11
476.162
 21
553.649
 31
0.0
  0
LINE
  8
0
 62
     0
 10
476.162
 20
553.649
 30
0.0
 11
476.412
 21
553.501
 31
0.0
  0
LINE
  8
0
 62
     0
 10
476.412
 20
553.501
 30
0.0
 11
478.91
 21
551.984
 31
0.0
  0
LINE
  8
0
 62
     0
 10
478.91
 20
551.984
 30
0.0
 11
479.157
 21
551.826
 31
0.0
  0
LINE
  8
0
 62
     0
 10
479.157
 20
551.826
 30
0.0
 11
479.249
 21
551.773
 31
0.0
  0
LINE
  8
0
 62
     0
 10
479.249
 20
551.773
 30
0.0
 11
480.176
 21
551.208
 31
0.0
  0
LINE
  8
0
 62
     0
 10
480.176
 20
551.208
 30
0.0
 11
480.268
 21
551.152
 31
0.0
  0
LINE
  8
0
 62
     0
 10
480.268
 20
551.152
 30
0.0
 11
480.515
 21
551.004
 31
0.0
  0
LINE
  8
0
 62
     0
 10
480.515
 20
551.004
 30
0.0
 11
482.97
 21
549.511
 31
0.0
  0
LINE
  8
0
 62
     0
 10
482.97
 20
549.511
 30
0.0
 11
483.217
 21
549.356
 31
0.0
  0
LINE
  8
0
 62
     0
 10
483.217
 20
549.356
 30
0.0
 11
483.443
 21
549.204
 31
0.0
  0
LINE
  8
0
 62
     0
 10
483.443
 20
549.204
 30
0.0
 11
485.715
 21
547.635
 31
0.0
  0
LINE
  8
0
 62
     0
 10
485.715
 20
547.635
 30
0.0
 11
485.941
 21
547.472
 31
0.0
  0
LINE
  8
0
 62
     0
 10
485.941
 20
547.472
 30
0.0
 11
488.089
 21
545.984
 31
0.0
  0
LINE
  8
0
 62
     0
 10
488.089
 20
545.984
 30
0.0
 11
498.373
 21
537.933
 31
0.0
  0
LINE
  8
0
 62
     0
 10
498.373
 20
537.933
 30
0.0
 11
508.007
 21
529.128
 31
0.0
  0
LINE
  8
0
 62
     0
 10
508.007
 20
529.128
 30
0.0
 11
509.834
 21
527.258
 31
0.0
  0
LINE
  8
0
 62
     0
 10
509.834
 20
527.258
 30
0.0
 11
509.905
 21
527.177
 31
0.0
  0
LINE
  8
0
 62
     0
 10
509.905
 20
527.177
 30
0.0
 11
510.639
 21
526.348
 31
0.0
  0
LINE
  8
0
 62
     0
 10
510.639
 20
526.348
 30
0.0
 11
510.709
 21
526.263
 31
0.0
  0
LINE
  8
0
 62
     0
 10
510.709
 20
526.263
 30
0.0
 11
511.729
 21
525.194
 31
0.0
  0
LINE
  8
0
 62
     0
 10
511.729
 20
525.194
 30
0.0
 11
521.293
 21
513.973
 31
0.0
  0
LINE
  8
0
 62
     0
 10
521.293
 20
513.973
 30
0.0
 11
522.189
 21
512.798
 31
0.0
  0
LINE
  8
0
 62
     0
 10
522.189
 20
512.798
 30
0.0
 11
522.224
 21
512.752
 31
0.0
  0
LINE
  8
0
 62
     0
 10
522.224
 20
512.752
 30
0.0
 11
522.566
 21
512.276
 31
0.0
  0
LINE
  8
0
 62
     0
 10
522.566
 20
512.276
 30
0.0
 11
522.601
 21
512.226
 31
0.0
  0
LINE
  8
0
 62
     0
 10
522.601
 20
512.226
 30
0.0
 11
523.018
 21
511.679
 31
0.0
  0
LINE
  8
0
 62
     0
 10
523.018
 20
511.679
 30
0.0
 11
527.043
 21
506.088
 31
0.0
  0
LINE
  8
0
 62
     0
 10
527.043
 20
506.088
 30
0.0
 11
527.435
 21
505.516
 31
0.0
  0
LINE
  8
0
 62
     0
 10
527.435
 20
505.516
 30
0.0
 11
528.158
 21
504.455
 31
0.0
  0
LINE
  8
0
 62
     0
 10
528.158
 20
504.455
 30
0.0
 11
534.885
 21
493.487
 31
0.0
  0
LINE
  8
0
 62
     0
 10
534.885
 20
493.487
 30
0.0
 11
535.51
 21
492.358
 31
0.0
  0
LINE
  8
0
 62
     0
 10
535.51
 20
492.358
 30
0.0
 11
535.555
 21
492.273
 31
0.0
  0
LINE
  8
0
 62
     0
 10
535.555
 20
492.273
 30
0.0
 11
536.046
 21
491.423
 31
0.0
  0
LINE
  8
0
 62
     0
 10
536.046
 20
491.423
 30
0.0
 11
536.095
 21
491.338
 31
0.0
  0
LINE
  8
0
 62
     0
 10
536.095
 20
491.338
 30
0.0
 11
536.656
 21
490.298
 31
0.0
  0
LINE
  8
0
 62
     0
 10
536.656
 20
490.298
 30
0.0
 11
541.793
 21
479.661
 31
0.0
  0
LINE
  8
0
 62
     0
 10
541.793
 20
479.661
 30
0.0
 11
542.262
 21
478.575
 31
0.0
  0
LINE
  8
0
 62
     0
 10
542.262
 20
478.575
 30
0.0
 11
542.382
 21
478.314
 31
0.0
  0
LINE
  8
0
 62
     0
 10
542.382
 20
478.314
 30
0.0
 11
543.574
 21
475.675
 31
0.0
  0
LINE
  8
0
 62
     0
 10
543.574
 20
475.675
 30
0.0
 11
543.691
 21
475.407
 31
0.0
  0
LINE
  8
0
 62
     0
 10
543.691
 20
475.407
 30
0.0
 11
543.772
 21
475.227
 31
0.0
  0
LINE
  8
0
 62
     0
 10
543.772
 20
475.227
 30
0.0
 11
544.587
 21
473.414
 31
0.0
  0
LINE
  8
0
 62
     0
 10
544.587
 20
473.414
 30
0.0
 11
544.668
 21
473.23
 31
0.0
  0
LINE
  8
0
 62
     0
 10
544.668
 20
473.23
 30
0.0
 11
545.447
 21
471.198
 31
0.0
  0
LINE
  8
0
 62
     0
 10
545.447
 20
471.198
 30
0.0
 11
548.841
 21
460.862
 31
0.0
  0
LINE
  8
0
 62
     0
 10
548.841
 20
460.862
 30
0.0
 11
551.561
 21
450.328
 31
0.0
  0
LINE
  8
0
 62
     0
 10
551.561
 20
450.328
 30
0.0
 11
552.005
 21
448.197
 31
0.0
  0
LINE
  8
0
 62
     0
 10
552.005
 20
448.197
 30
0.0
 11
552.274
 21
446.938
 31
0.0
  0
LINE
  8
0
 62
     0
 10
552.274
 20
446.938
 30
0.0
 11
554.373
 21
434.231
 31
0.0
  0
LINE
  8
0
 62
     0
 10
554.373
 20
434.231
 30
0.0
 11
554.521
 21
432.95
 31
0.0
  0
LINE
  8
0
 62
     0
 10
554.521
 20
432.95
 30
0.0
 11
554.613
 21
432.315
 31
0.0
  0
LINE
  8
0
 62
     0
 10
554.613
 20
432.315
 30
0.0
 11
555.357
 21
425.951
 31
0.0
  0
LINE
  8
0
 62
     0
 10
555.357
 20
425.951
 30
0.0
 11
555.417
 21
425.312
 31
0.0
  0
LINE
  8
0
 62
     0
 10
555.417
 20
425.312
 30
0.0
 11
555.48
 21
424.392
 31
0.0
  0
LINE
  8
0
 62
     0
 10
555.48
 20
424.392
 30
0.0
 11
555.808
 21
415.163
 31
0.0
  0
LINE
  8
0
 62
     0
 10
555.808
 20
415.163
 30
0.0
 11
555.812
 21
414.242
 31
0.0
  0
LINE
  8
0
 62
     0
 10
555.812
 20
414.242
 30
0.0
 11
555.791
 21
413.6
 31
0.0
  0
LINE
  8
0
 62
     0
 10
555.791
 20
413.6
 30
0.0
 11
555.449
 21
407.208
 31
0.0
  0
LINE
  8
0
 62
     0
 10
555.449
 20
407.208
 30
0.0
 11
555.403
 21
406.566
 31
0.0
  0
LINE
  8
0
 62
     0
 10
555.403
 20
406.566
 30
0.0
 11
550.912
 21
406.513
 31
0.0
  0
LINE
  8
0
 62
     0
 10
550.912
 20
406.513
 30
0.0
 11
550.951
 21
409.176
 31
0.0
  0
LINE
  8
0
 62
     0
 10
550.951
 20
409.176
 30
0.0
 11
550.947
 21
411.766
 31
0.0
  0
LINE
  8
0
 62
     0
 10
550.947
 20
411.766
 30
0.0
 11
550.693
 21
419.534
 31
0.0
  0
LINE
  8
0
 62
     0
 10
550.693
 20
419.534
 30
0.0
 11
549.949
 21
429.514
 31
0.0
  0
LINE
  8
0
 62
     0
 10
549.949
 20
429.514
 30
0.0
 11
548.739
 21
439.131
 31
0.0
  0
LINE
  8
0
 62
     0
 10
548.739
 20
439.131
 30
0.0
 11
547.084
 21
448.381
 31
0.0
  0
LINE
  8
0
 62
     0
 10
547.084
 20
448.381
 30
0.0
 11
544.992
 21
457.264
 31
0.0
  0
LINE
  8
0
 62
     0
 10
544.992
 20
457.264
 30
0.0
 11
542.491
 21
465.794
 31
0.0
  0
LINE
  8
0
 62
     0
 10
542.491
 20
465.794
 30
0.0
 11
539.591
 21
473.964
 31
0.0
  0
LINE
  8
0
 62
     0
 10
539.591
 20
473.964
 30
0.0
 11
536.317
 21
481.782
 31
0.0
  0
LINE
  8
0
 62
     0
 10
536.317
 20
481.782
 30
0.0
 11
532.684
 21
489.246
 31
0.0
  0
LINE
  8
0
 62
     0
 10
532.684
 20
489.246
 30
0.0
 11
528.708
 21
496.369
 31
0.0
  0
LINE
  8
0
 62
     0
 10
528.708
 20
496.369
 30
0.0
 11
524.411
 21
503.146
 31
0.0
  0
LINE
  8
0
 62
     0
 10
524.411
 20
503.146
 30
0.0
 11
519.811
 21
509.58
 31
0.0
  0
LINE
  8
0
 62
     0
 10
519.811
 20
509.58
 30
0.0
 11
514.922
 21
515.68
 31
0.0
  0
LINE
  8
0
 62
     0
 10
514.922
 20
515.68
 30
0.0
 11
509.764
 21
521.444
 31
0.0
  0
LINE
  8
0
 62
     0
 10
509.764
 20
521.444
 30
0.0
 11
504.352
 21
526.877
 31
0.0
  0
LINE
  8
0
 62
     0
 10
504.352
 20
526.877
 30
0.0
 11
498.711
 21
531.982
 31
0.0
  0
LINE
  8
0
 62
     0
 10
498.711
 20
531.982
 30
0.0
 11
492.855
 21
536.766
 31
0.0
  0
LINE
  8
0
 62
     0
 10
492.855
 20
536.766
 30
0.0
 11
486.802
 21
541.221
 31
0.0
  0
LINE
  8
0
 62
     0
 10
486.802
 20
541.221
 30
0.0
 11
480.568
 21
545.363
 31
0.0
  0
LINE
  8
0
 62
     0
 10
480.568
 20
545.363
 30
0.0
 11
474.176
 21
549.187
 31
0.0
  0
LINE
  8
0
 62
     0
 10
474.176
 20
549.187
 30
0.0
 11
467.639
 21
552.7
 31
0.0
  0
LINE
  8
0
 62
     0
 10
467.639
 20
552.7
 30
0.0
 11
460.978
 21
555.904
 31
0.0
  0
LINE
  8
0
 62
     0
 10
460.978
 20
555.904
 30
0.0
 11
454.216
 21
558.8
 31
0.0
  0
LINE
  8
0
 62
     0
 10
454.216
 20
558.8
 30
0.0
 11
447.357
 21
561.393
 31
0.0
  0
LINE
  8
0
 62
     0
 10
447.357
 20
561.393
 30
0.0
 11
440.432
 21
563.686
 31
0.0
  0
LINE
  8
0
 62
     0
 10
440.432
 20
563.686
 30
0.0
 11
433.451
 21
565.686
 31
0.0
  0
LINE
  8
0
 62
     0
 10
433.451
 20
565.686
 30
0.0
 11
426.438
 21
567.387
 31
0.0
  0
LINE
  8
0
 62
     0
 10
426.438
 20
567.387
 30
0.0
 11
419.41
 21
568.801
 31
0.0
  0
LINE
  8
0
 62
     0
 10
419.41
 20
568.801
 30
0.0
 11
412.38
 21
569.927
 31
0.0
  0
LINE
  8
0
 62
     0
 10
412.38
 20
569.927
 30
0.0
 11
405.37
 21
570.77
 31
0.0
  0
LINE
  8
0
 62
     0
 10
405.37
 20
570.77
 30
0.0
 11
398.399
 21
571.331
 31
0.0
  0
LINE
  8
0
 62
     0
 10
398.399
 20
571.331
 30
0.0
 11
393.213
 21
571.578
 31
0.0
  0
LINE
  8
0
 62
     0
 10
393.213
 20
571.578
 30
0.0
 11
391.485
 21
571.613
 31
0.0
  0
LINE
  8
0
 62
     0
 10
391.485
 20
571.613
 30
0.0
 11
391.552
 21
577.077
 31
0.0
  0
LINE
  8
0
 62
     0
 10
391.552
 20
577.077
 30
0.0
 11
391.608
 21
577.077
 31
0.0
  0
LINE
  8
0
 62
     0
 10
391.608
 20
577.077
 30
0.0
 11
391.753
 21
577.081
 31
0.0
  0
LINE
  8
0
 62
     0
 10
391.753
 20
577.081
 30
0.0
 11
391.774
 21
577.081
 31
0.0
  0
LINE
  8
0
 62
     0
 10
384.926
 20
576.686
 30
0.0
 11
384.683
 21
571.616
 31
0.0
  0
LINE
  8
0
 62
     0
 10
384.683
 20
571.616
 30
0.0
 11
382.997
 21
571.574
 31
0.0
  0
LINE
  8
0
 62
     0
 10
382.997
 20
571.574
 30
0.0
 11
377.934
 21
571.281
 31
0.0
  0
LINE
  8
0
 62
     0
 10
377.934
 20
571.281
 30
0.0
 11
371.172
 21
570.607
 31
0.0
  0
LINE
  8
0
 62
     0
 10
371.172
 20
570.607
 30
0.0
 11
364.412
 21
569.595
 31
0.0
  0
LINE
  8
0
 62
     0
 10
364.412
 20
569.595
 30
0.0
 11
357.664
 21
568.254
 31
0.0
  0
LINE
  8
0
 62
     0
 10
357.664
 20
568.254
 30
0.0
 11
350.948
 21
566.586
 31
0.0
  0
LINE
  8
0
 62
     0
 10
350.948
 20
566.586
 30
0.0
 11
344.274
 21
564.603
 31
0.0
  0
LINE
  8
0
 62
     0
 10
344.274
 20
564.603
 30
0.0
 11
337.658
 21
562.3
 31
0.0
  0
LINE
  8
0
 62
     0
 10
337.658
 20
562.3
 30
0.0
 11
331.117
 21
559.693
 31
0.0
  0
LINE
  8
0
 62
     0
 10
331.117
 20
559.693
 30
0.0
 11
324.662
 21
556.782
 31
0.0
  0
LINE
  8
0
 62
     0
 10
324.662
 20
556.782
 30
0.0
 11
318.309
 21
553.572
 31
0.0
  0
LINE
  8
0
 62
     0
 10
318.309
 20
553.572
 30
0.0
 11
312.072
 21
550.072
 31
0.0
  0
LINE
  8
0
 62
     0
 10
312.072
 20
550.072
 30
0.0
 11
305.967
 21
546.287
 31
0.0
  0
LINE
  8
0
 62
     0
 10
305.967
 20
546.287
 30
0.0
 11
300.009
 21
542.219
 31
0.0
  0
LINE
  8
0
 62
     0
 10
300.009
 20
542.219
 30
0.0
 11
294.21
 21
537.88
 31
0.0
  0
LINE
  8
0
 62
     0
 10
294.21
 20
537.88
 30
0.0
 11
288.585
 21
533.269
 31
0.0
  0
LINE
  8
0
 62
     0
 10
288.585
 20
533.269
 30
0.0
 11
283.15
 21
528.391
 31
0.0
  0
LINE
  8
0
 62
     0
 10
283.15
 20
528.391
 30
0.0
 11
277.919
 21
523.258
 31
0.0
  0
LINE
  8
0
 62
     0
 10
277.919
 20
523.258
 30
0.0
 11
272.907
 21
517.871
 31
0.0
  0
LINE
  8
0
 62
     0
 10
272.907
 20
517.871
 30
0.0
 11
268.126
 21
512.24
 31
0.0
  0
LINE
  8
0
 62
     0
 10
268.126
 20
512.24
 30
0.0
 11
263.594
 21
506.363
 31
0.0
  0
LINE
  8
0
 62
     0
 10
263.594
 20
506.363
 30
0.0
 11
259.325
 21
500.253
 31
0.0
  0
LINE
  8
0
 62
     0
 10
259.325
 20
500.253
 30
0.0
 11
255.331
 21
493.91
 31
0.0
  0
LINE
  8
0
 62
     0
 10
255.331
 20
493.91
 30
0.0
 11
251.628
 21
487.341
 31
0.0
  0
LINE
  8
0
 62
     0
 10
251.628
 20
487.341
 30
0.0
 11
248.231
 21
480.554
 31
0.0
  0
LINE
  8
0
 62
     0
 10
248.231
 20
480.554
 30
0.0
 11
245.154
 21
473.555
 31
0.0
  0
LINE
  8
0
 62
     0
 10
245.154
 20
473.555
 30
0.0
 11
242.412
 21
466.344
 31
0.0
  0
LINE
  8
0
 62
     0
 10
242.412
 20
466.344
 30
0.0
 11
240.02
 21
458.932
 31
0.0
  0
LINE
  8
0
 62
     0
 10
240.02
 20
458.932
 30
0.0
 11
237.991
 21
451.323
 31
0.0
  0
LINE
  8
0
 62
     0
 10
237.991
 20
451.323
 30
0.0
 11
236.34
 21
443.519
 31
0.0
  0
LINE
  8
0
 62
     0
 10
236.34
 20
443.519
 30
0.0
 11
235.084
 21
435.529
 31
0.0
  0
LINE
  8
0
 62
     0
 10
235.084
 20
435.529
 30
0.0
 11
234.234
 21
427.362
 31
0.0
  0
LINE
  8
0
 62
     0
 10
234.234
 20
427.362
 30
0.0
 11
233.859
 21
421.104
 31
0.0
  0
LINE
  8
0
 62
     0
 10
233.859
 20
421.104
 30
0.0
 11
233.806
 21
419.015
 31
0.0
  0
LINE
  8
0
 62
     0
 10
233.806
 20
419.015
 30
0.0
 11
227.983
 21
419.096
 31
0.0
  0
LINE
  8
0
 62
     0
 10
227.983
 20
419.096
 30
0.0
 11
228.097
 21
422.787
 31
0.0
  0
LINE
  8
0
 62
     0
 10
228.097
 20
422.787
 30
0.0
 11
229.11
 21
433.836
 31
0.0
  0
LINE
  8
0
 62
     0
 10
229.11
 20
433.836
 30
0.0
 11
231.53
 21
448.197
 31
0.0
  0
LINE
  8
0
 62
     0
 10
231.53
 20
448.197
 30
0.0
 11
235.184
 21
462.125
 31
0.0
  0
LINE
  8
0
 62
     0
 10
235.184
 20
462.125
 30
0.0
 11
240.021
 21
475.552
 31
0.0
  0
LINE
  8
0
 62
     0
 10
240.021
 20
475.552
 30
0.0
 11
245.98
 21
488.421
 31
0.0
  0
LINE
  8
0
 62
     0
 10
245.98
 20
488.421
 30
0.0
 11
253.009
 21
500.666
 31
0.0
  0
LINE
  8
0
 62
     0
 10
253.009
 20
500.666
 30
0.0
 11
261.05
 21
512.226
 31
0.0
  0
LINE
  8
0
 62
     0
 10
261.05
 20
512.226
 30
0.0
 11
270.049
 21
523.046
 31
0.0
  0
LINE
  8
0
 62
     0
 10
270.049
 20
523.046
 30
0.0
 11
279.949
 21
533.061
 31
0.0
  0
LINE
  8
0
 62
     0
 10
279.949
 20
533.061
 30
0.0
 11
290.695
 21
542.205
 31
0.0
  0
LINE
  8
0
 62
     0
 10
290.695
 20
542.205
 30
0.0
 11
302.23
 21
550.422
 31
0.0
  0
LINE
  8
0
 62
     0
 10
302.23
 20
550.422
 30
0.0
 11
314.499
 21
557.646
 31
0.0
  0
LINE
  8
0
 62
     0
 10
314.499
 20
557.646
 30
0.0
 11
327.447
 21
563.824
 31
0.0
  0
LINE
  8
0
 62
     0
 10
327.447
 20
563.824
 30
0.0
 11
341.016
 21
568.886
 31
0.0
  0
LINE
  8
0
 62
     0
 10
341.016
 20
568.886
 30
0.0
 11
355.152
 21
572.774
 31
0.0
  0
LINE
  8
0
 62
     0
 10
355.152
 20
572.774
 30
0.0
 11
366.116
 21
574.925
 31
0.0
  0
LINE
  8
0
 62
     0
 10
366.116
 20
574.925
 30
0.0
 11
369.803
 21
575.423
 31
0.0
  0
LINE
  8
0
 62
     0
 10
369.803
 20
575.423
 30
0.0
 11
369.803
 21
575.423
 31
0.0
  0
LINE
  8
0
 62
     0
 10
369.803
 20
575.423
 30
0.0
 11
369.803
 21
575.423
 31
0.0
  0
LINE
  8
0
 62
     0
 10
369.803
 20
575.423
 30
0.0
 11
369.806
 21
575.423
 31
0.0
  0
LINE
  8
0
 62
     0
 10
369.806
 20
575.423
 30
0.0
 11
370.141
 21
575.469
 31
0.0
  0
LINE
  8
0
 62
     0
 10
370.141
 20
575.469
 30
0.0
 11
373.525
 21
575.878
 31
0.0
  0
LINE
  8
0
 62
     0
 10
373.525
 20
575.878
 30
0.0
 11
373.863
 21
575.913
 31
0.0
  0
LINE
  8
0
 62
     0
 10
373.863
 20
575.913
 30
0.0
 11
374.784
 21
576.009
 31
0.0
  0
LINE
  8
0
 62
     0
 10
374.784
 20
576.009
 30
0.0
 11
384.002
 21
576.654
 31
0.0
  0
LINE
  8
0
 62
     0
 10
384.002
 20
576.654
 30
0.0
 11
384.926
 21
576.686
 31
0.0
  0
LINE
  8
0
 62
     0
 10
288.128
 20
516.064
 30
0.0
 11
288.153
 21
516.064
 31
0.0
  0
LINE
  8
0
 62
     0
 10
288.153
 20
516.064
 30
0.0
 11
288.229
 21
515.92
 31
0.0
  0
LINE
  8
0
 62
     0
 10
288.229
 20
515.92
 30
0.0
 11
288.447
 21
515.514
 31
0.0
  0
LINE
  8
0
 62
     0
 10
288.447
 20
515.514
 30
0.0
 11
288.747
 21
514.918
 31
0.0
  0
LINE
  8
0
 62
     0
 10
288.747
 20
514.918
 30
0.0
 11
289.012
 21
514.371
 31
0.0
  0
LINE
  8
0
 62
     0
 10
289.012
 20
514.371
 30
0.0
 11
289.099
 21
514.188
 31
0.0
  0
LINE
  8
0
 62
     0
 10
289.099
 20
514.188
 30
0.0
 11
289.462
 21
513.419
 31
0.0
  0
LINE
  8
0
 62
     0
 10
289.462
 20
513.419
 30
0.0
 11
290.8
 21
511.224
 31
0.0
  0
LINE
  8
0
 62
     0
 10
290.8
 20
511.224
 30
0.0
 11
293.26
 21
507.799
 31
0.0
  0
LINE
  8
0
 62
     0
 10
293.26
 20
507.799
 30
0.0
 11
296.248
 21
504.201
 31
0.0
  0
LINE
  8
0
 62
     0
 10
296.248
 20
504.201
 30
0.0
 11
298.681
 21
501.572
 31
0.0
  0
LINE
  8
0
 62
     0
 10
298.681
 20
501.572
 30
0.0
 11
299.533
 21
500.736
 31
0.0
  0
LINE
  8
0
 62
     0
 10
299.533
 20
500.736
 30
0.0
 11
299.913
 21
500.359
 31
0.0
  0
LINE
  8
0
 62
     0
 10
299.913
 20
500.359
 30
0.0
 11
301.075
 21
499.251
 31
0.0
  0
LINE
  8
0
 62
     0
 10
301.075
 20
499.251
 30
0.0
 11
302.659
 21
497.78
 31
0.0
  0
LINE
  8
0
 62
     0
 10
302.659
 20
497.78
 30
0.0
 11
304.22
 21
496.38
 31
0.0
  0
LINE
  8
0
 62
     0
 10
304.22
 20
496.38
 30
0.0
 11
305.689
 21
495.109
 31
0.0
  0
LINE
  8
0
 62
     0
 10
305.689
 20
495.109
 30
0.0
 11
307.002
 21
494.023
 31
0.0
  0
LINE
  8
0
 62
     0
 10
307.002
 20
494.023
 30
0.0
 11
308.091
 21
493.176
 31
0.0
  0
LINE
  8
0
 62
     0
 10
308.091
 20
493.176
 30
0.0
 11
308.89
 21
492.626
 31
0.0
  0
LINE
  8
0
 62
     0
 10
308.89
 20
492.626
 30
0.0
 11
309.221
 21
492.428
 31
0.0
  0
LINE
  8
0
 62
     0
 10
309.221
 20
492.428
 30
0.0
 11
309.332
 21
492.428
 31
0.0
  0
LINE
  8
0
 62
     0
 10
309.332
 20
492.428
 30
0.0
 11
309.458
 21
492.428
 31
0.0
  0
LINE
  8
0
 62
     0
 10
309.458
 20
492.428
 30
0.0
 11
309.837
 21
492.238
 31
0.0
  0
LINE
  8
0
 62
     0
 10
309.837
 20
492.238
 30
0.0
 11
310.33
 21
491.867
 31
0.0
  0
LINE
  8
0
 62
     0
 10
310.33
 20
491.867
 30
0.0
 11
310.417
 21
491.776
 31
0.0
  0
LINE
  8
0
 62
     0
 10
310.417
 20
491.776
 30
0.0
 11
310.502
 21
491.684
 31
0.0
  0
LINE
  8
0
 62
     0
 10
310.502
 20
491.684
 30
0.0
 11
311.352
 21
491.13
 31
0.0
  0
LINE
  8
0
 62
     0
 10
311.352
 20
491.13
 30
0.0
 11
312.491
 21
490.58
 31
0.0
  0
LINE
  8
0
 62
     0
 10
312.491
 20
490.58
 30
0.0
 11
312.722
 21
490.492
 31
0.0
  0
LINE
  8
0
 62
     0
 10
312.722
 20
490.492
 30
0.0
 11
312.886
 21
490.432
 31
0.0
  0
LINE
  8
0
 62
     0
 10
312.886
 20
490.432
 30
0.0
 11
313.373
 21
490.231
 31
0.0
  0
LINE
  8
0
 62
     0
 10
313.373
 20
490.231
 30
0.0
 11
313.905
 21
489.984
 31
0.0
  0
LINE
  8
0
 62
     0
 10
313.905
 20
489.984
 30
0.0
 11
314.266
 21
489.775
 31
0.0
  0
LINE
  8
0
 62
     0
 10
314.266
 20
489.775
 30
0.0
 11
314.398
 21
489.673
 31
0.0
  0
LINE
  8
0
 62
     0
 10
314.398
 20
489.673
 30
0.0
 11
314.398
 21
489.638
 31
0.0
  0
LINE
  8
0
 62
     0
 10
314.398
 20
489.638
 30
0.0
 11
314.398
 21
489.603
 31
0.0
  0
LINE
  8
0
 62
     0
 10
314.398
 20
489.603
 30
0.0
 11
314.537
 21
489.497
 31
0.0
  0
LINE
  8
0
 62
     0
 10
314.537
 20
489.497
 30
0.0
 11
314.916
 21
489.278
 31
0.0
  0
LINE
  8
0
 62
     0
 10
314.916
 20
489.278
 30
0.0
 11
315.477
 21
489.01
 31
0.0
  0
LINE
  8
0
 62
     0
 10
315.477
 20
489.01
 30
0.0
 11
315.988
 21
488.791
 31
0.0
  0
LINE
  8
0
 62
     0
 10
315.988
 20
488.791
 30
0.0
 11
316.162
 21
488.724
 31
0.0
  0
LINE
  8
0
 62
     0
 10
316.162
 20
488.724
 30
0.0
 11
316.429
 21
488.622
 31
0.0
  0
LINE
  8
0
 62
     0
 10
316.429
 20
488.622
 30
0.0
 11
317.199
 21
488.216
 31
0.0
  0
LINE
  8
0
 62
     0
 10
317.199
 20
488.216
 30
0.0
 11
317.828
 21
487.705
 31
0.0
  0
LINE
  8
0
 62
     0
 10
317.828
 20
487.705
 30
0.0
 11
317.953
 21
487.303
 31
0.0
  0
LINE
  8
0
 62
     0
 10
317.953
 20
487.303
 30
0.0
 11
317.603
 21
487.123
 31
0.0
  0
LINE
  8
0
 62
     0
 10
317.603
 20
487.123
 30
0.0
 11
317.485
 21
487.119
 31
0.0
  0
LINE
  8
0
 62
     0
 10
317.485
 20
487.119
 30
0.0
 11
316.053
 21
486.897
 31
0.0
  0
LINE
  8
0
 62
     0
 10
316.053
 20
486.897
 30
0.0
 11
311.799
 21
485.958
 31
0.0
  0
LINE
  8
0
 62
     0
 10
311.799
 20
485.958
 30
0.0
 11
306.378
 21
484.325
 31
0.0
  0
LINE
  8
0
 62
     0
 10
306.378
 20
484.325
 30
0.0
 11
301.234
 21
482.24
 31
0.0
  0
LINE
  8
0
 62
     0
 10
301.234
 20
482.24
 30
0.0
 11
296.38
 21
479.746
 31
0.0
  0
LINE
  8
0
 62
     0
 10
296.38
 20
479.746
 30
0.0
 11
291.833
 21
476.86
 31
0.0
  0
LINE
  8
0
 62
     0
 10
291.833
 20
476.86
 30
0.0
 11
287.604
 21
473.622
 31
0.0
  0
LINE
  8
0
 62
     0
 10
287.604
 20
473.622
 30
0.0
 11
283.708
 21
470.059
 31
0.0
  0
LINE
  8
0
 62
     0
 10
283.708
 20
470.059
 30
0.0
 11
280.158
 21
466.199
 31
0.0
  0
LINE
  8
0
 62
     0
 10
280.158
 20
466.199
 30
0.0
 11
276.969
 21
462.072
 31
0.0
  0
LINE
  8
0
 62
     0
 10
276.969
 20
462.072
 30
0.0
 11
274.154
 21
457.715
 31
0.0
  0
LINE
  8
0
 62
     0
 10
274.154
 20
457.715
 30
0.0
 11
271.727
 21
453.15
 31
0.0
  0
LINE
  8
0
 62
     0
 10
271.727
 20
453.15
 30
0.0
 11
269.701
 21
448.409
 31
0.0
  0
LINE
  8
0
 62
     0
 10
269.701
 20
448.409
 30
0.0
 11
268.092
 21
443.526
 31
0.0
  0
LINE
  8
0
 62
     0
 10
268.092
 20
443.526
 30
0.0
 11
266.912
 21
438.527
 31
0.0
  0
LINE
  8
0
 62
     0
 10
266.912
 20
438.527
 30
0.0
 11
266.175
 21
433.444
 31
0.0
  0
LINE
  8
0
 62
     0
 10
266.175
 20
433.444
 30
0.0
 11
265.908
 21
429.592
 31
0.0
  0
LINE
  8
0
 62
     0
 10
265.908
 20
429.592
 30
0.0
 11
265.897
 21
428.307
 31
0.0
  0
LINE
  8
0
 62
     0
 10
265.897
 20
428.307
 30
0.0
 11
265.884
 21
427.016
 31
0.0
  0
LINE
  8
0
 62
     0
 10
265.884
 20
427.016
 30
0.0
 11
266.107
 21
423.143
 31
0.0
  0
LINE
  8
0
 62
     0
 10
266.107
 20
423.143
 30
0.0
 11
266.829
 21
417.989
 31
0.0
  0
LINE
  8
0
 62
     0
 10
266.829
 20
417.989
 30
0.0
 11
268.049
 21
412.888
 31
0.0
  0
LINE
  8
0
 62
     0
 10
268.049
 20
412.888
 30
0.0
 11
269.758
 21
407.892
 31
0.0
  0
LINE
  8
0
 62
     0
 10
269.758
 20
407.892
 30
0.0
 11
271.943
 21
403.042
 31
0.0
  0
LINE
  8
0
 62
     0
 10
271.943
 20
403.042
 30
0.0
 11
274.598
 21
398.385
 31
0.0
  0
LINE
  8
0
 62
     0
 10
274.598
 20
398.385
 30
0.0
 11
277.706
 21
393.968
 31
0.0
  0
LINE
  8
0
 62
     0
 10
277.706
 20
393.968
 30
0.0
 11
281.263
 21
389.834
 31
0.0
  0
LINE
  8
0
 62
     0
 10
281.263
 20
389.834
 30
0.0
 11
285.255
 21
386.034
 31
0.0
  0
LINE
  8
0
 62
     0
 10
285.255
 20
386.034
 30
0.0
 11
289.672
 21
382.609
 31
0.0
  0
LINE
  8
0
 62
     0
 10
289.672
 20
382.609
 30
0.0
 11
294.503
 21
379.607
 31
0.0
  0
LINE
  8
0
 62
     0
 10
294.503
 20
379.607
 30
0.0
 11
299.738
 21
377.074
 31
0.0
  0
LINE
  8
0
 62
     0
 10
299.738
 20
377.074
 30
0.0
 11
305.368
 21
375.052
 31
0.0
  0
LINE
  8
0
 62
     0
 10
305.368
 20
375.052
 30
0.0
 11
311.379
 21
373.595
 31
0.0
  0
LINE
  8
0
 62
     0
 10
311.379
 20
373.595
 30
0.0
 11
317.763
 21
372.741
 31
0.0
  0
LINE
  8
0
 62
     0
 10
317.763
 20
372.741
 30
0.0
 11
322.825
 21
372.509
 31
0.0
  0
LINE
  8
0
 62
     0
 10
322.825
 20
372.509
 30
0.0
 11
324.51
 21
372.544
 31
0.0
  0
LINE
  8
0
 62
     0
 10
324.51
 20
372.544
 30
0.0
 11
326.18
 21
372.579
 31
0.0
  0
LINE
  8
0
 62
     0
 10
326.18
 20
372.579
 30
0.0
 11
331.187
 21
373.02
 31
0.0
  0
LINE
  8
0
 62
     0
 10
331.187
 20
373.02
 30
0.0
 11
337.381
 21
374.124
 31
0.0
  0
LINE
  8
0
 62
     0
 10
337.381
 20
374.124
 30
0.0
 11
343.105
 21
375.789
 31
0.0
  0
LINE
  8
0
 62
     0
 10
343.105
 20
375.789
 30
0.0
 11
348.374
 21
377.952
 31
0.0
  0
LINE
  8
0
 62
     0
 10
348.374
 20
377.952
 30
0.0
 11
353.198
 21
380.552
 31
0.0
  0
LINE
  8
0
 62
     0
 10
353.198
 20
380.552
 30
0.0
 11
357.59
 21
383.519
 31
0.0
  0
LINE
  8
0
 62
     0
 10
357.59
 20
383.519
 30
0.0
 11
361.562
 21
386.793
 31
0.0
  0
LINE
  8
0
 62
     0
 10
361.562
 20
386.793
 30
0.0
 11
365.132
 21
390.306
 31
0.0
  0
LINE
  8
0
 62
     0
 10
365.132
 20
390.306
 30
0.0
 11
368.307
 21
393.996
 31
0.0
  0
LINE
  8
0
 62
     0
 10
368.307
 20
393.996
 30
0.0
 11
371.105
 21
397.803
 31
0.0
  0
LINE
  8
0
 62
     0
 10
371.105
 20
397.803
 30
0.0
 11
373.535
 21
401.652
 31
0.0
  0
LINE
  8
0
 62
     0
 10
373.535
 20
401.652
 30
0.0
 11
375.613
 21
405.49
 31
0.0
  0
LINE
  8
0
 62
     0
 10
375.613
 20
405.49
 30
0.0
 11
377.349
 21
409.247
 31
0.0
  0
LINE
  8
0
 62
     0
 10
377.349
 20
409.247
 30
0.0
 11
378.756
 21
412.856
 31
0.0
  0
LINE
  8
0
 62
     0
 10
378.756
 20
412.856
 30
0.0
 11
379.85
 21
416.26
 31
0.0
  0
LINE
  8
0
 62
     0
 10
379.85
 20
416.26
 30
0.0
 11
380.471
 21
418.603
 31
0.0
  0
LINE
  8
0
 62
     0
 10
380.471
 20
418.603
 30
0.0
 11
380.644
 21
419.389
 31
0.0
  0
LINE
  8
0
 62
     0
 10
380.644
 20
419.389
 30
0.0
 11
381.141
 21
418.98
 31
0.0
  0
LINE
  8
0
 62
     0
 10
381.141
 20
418.98
 30
0.0
 11
382.461
 21
417.53
 31
0.0
  0
LINE
  8
0
 62
     0
 10
382.461
 20
417.53
 30
0.0
 11
384.217
 21
415.117
 31
0.0
  0
LINE
  8
0
 62
     0
 10
384.217
 20
415.117
 30
0.0
 11
385.868
 21
412.351
 31
0.0
  0
LINE
  8
0
 62
     0
 10
385.868
 20
412.351
 30
0.0
 11
387.392
 21
409.43
 31
0.0
  0
LINE
  8
0
 62
     0
 10
387.392
 20
409.43
 30
0.0
 11
388.747
 21
406.552
 31
0.0
  0
LINE
  8
0
 62
     0
 10
388.747
 20
406.552
 30
0.0
 11
389.901
 21
403.913
 31
0.0
  0
LINE
  8
0
 62
     0
 10
389.901
 20
403.913
 30
0.0
 11
390.825
 21
401.712
 31
0.0
  0
LINE
  8
0
 62
     0
 10
390.825
 20
401.712
 30
0.0
 11
391.312
 21
400.533
 31
0.0
  0
LINE
  8
0
 62
     0
 10
391.312
 20
400.533
 30
0.0
 11
391.481
 21
400.142
 31
0.0
  0
LINE
  8
0
 62
     0
 10
391.481
 20
400.142
 30
0.0
 11
389.177
 21
398.018
 31
0.0
  0
LINE
  8
0
 62
     0
 10
389.177
 20
398.018
 30
0.0
 11
382.739
 21
391.135
 31
0.0
  0
LINE
  8
0
 62
     0
 10
382.739
 20
391.135
 30
0.0
 11
375.405
 21
381.603
 31
0.0
  0
LINE
  8
0
 62
     0
 10
375.405
 20
381.603
 30
0.0
 11
369.566
 21
371.718
 31
0.0
  0
LINE
  8
0
 62
     0
 10
369.566
 20
371.718
 30
0.0
 11
366.18
 21
364.222
 31
0.0
  0
LINE
  8
0
 62
     0
 10
366.18
 20
364.222
 30
0.0
 11
365.298
 21
361.636
 31
0.0
  0
LINE
  8
0
 62
     0
 10
365.298
 20
361.636
 30
0.0
 11
365.21
 21
361.456
 31
0.0
  0
LINE
  8
0
 62
     0
 10
365.21
 20
361.456
 30
0.0
 11
364.917
 21
360.92
 31
0.0
  0
LINE
  8
0
 62
     0
 10
364.917
 20
360.92
 30
0.0
 11
364.532
 21
360.331
 31
0.0
  0
LINE
  8
0
 62
     0
 10
364.532
 20
360.331
 30
0.0
 11
364.194
 21
359.932
 31
0.0
  0
LINE
  8
0
 62
     0
 10
364.194
 20
359.932
 30
0.0
 11
364.007
 21
359.784
 31
0.0
  0
LINE
  8
0
 62
     0
 10
364.007
 20
359.784
 30
0.0
 11
363.943
 21
359.784
 31
0.0
  0
LINE
  8
0
 62
     0
 10
363.943
 20
359.784
 30
0.0
 11
363.636
 21
359.784
 31
0.0
  0
LINE
  8
0
 62
     0
 10
363.636
 20
359.784
 30
0.0
 11
362.716
 21
359.967
 31
0.0
  0
LINE
  8
0
 62
     0
 10
362.716
 20
359.967
 30
0.0
 11
360.899
 21
360.391
 31
0.0
  0
LINE
  8
0
 62
     0
 10
360.899
 20
360.391
 30
0.0
 11
359.177
 21
360.885
 31
0.0
  0
LINE
  8
0
 62
     0
 10
359.177
 20
360.885
 30
0.0
 11
358.345
 21
361.174
 31
0.0
  0
LINE
  8
0
 62
     0
 10
358.345
 20
361.174
 30
0.0
 11
358.239
 21
361.262
 31
0.0
  0
LINE
  8
0
 62
     0
 10
358.239
 20
361.262
 30
0.0
 11
358.179
 21
361.315
 31
0.0
  0
LINE
  8
0
 62
     0
 10
358.179
 20
361.315
 30
0.0
 11
357.77
 21
361.46
 31
0.0
  0
LINE
  8
0
 62
     0
 10
357.77
 20
361.46
 30
0.0
 11
357.339
 21
361.453
 31
0.0
  0
LINE
  8
0
 62
     0
 10
357.339
 20
361.453
 30
0.0
 11
357.265
 21
361.421
 31
0.0
  0
LINE
  8
0
 62
     0
 10
357.265
 20
361.421
 30
0.0
 11
357.191
 21
361.396
 31
0.0
  0
LINE
  8
0
 62
     0
 10
357.191
 20
361.396
 30
0.0
 11
356.888
 21
361.379
 31
0.0
  0
LINE
  8
0
 62
     0
 10
356.888
 20
361.379
 30
0.0
 11
356.732
 21
361.516
 31
0.0
  0
LINE
  8
0
 62
     0
 10
356.732
 20
361.516
 30
0.0
 11
356.732
 21
361.558
 31
0.0
  0
LINE
  8
0
 62
     0
 10
356.732
 20
361.558
 30
0.0
 11
356.732
 21
361.622
 31
0.0
  0
LINE
  8
0
 62
     0
 10
356.732
 20
361.622
 30
0.0
 11
356.316
 21
361.802
 31
0.0
  0
LINE
  8
0
 62
     0
 10
356.316
 20
361.802
 30
0.0
 11
355.568
 21
361.901
 31
0.0
  0
LINE
  8
0
 62
     0
 10
355.568
 20
361.901
 30
0.0
 11
355.321
 21
361.901
 31
0.0
  0
LINE
  8
0
 62
     0
 10
355.321
 20
361.901
 30
0.0
 11
355.071
 21
361.901
 31
0.0
  0
LINE
  8
0
 62
     0
 10
355.071
 20
361.901
 30
0.0
 11
354.323
 21
361.791
 31
0.0
  0
LINE
  8
0
 62
     0
 10
354.323
 20
361.791
 30
0.0
 11
353.91
 21
361.594
 31
0.0
  0
LINE
  8
0
 62
     0
 10
353.91
 20
361.594
 30
0.0
 11
353.91
 21
361.527
 31
0.0
  0
LINE
  8
0
 62
     0
 10
353.91
 20
361.527
 30
0.0
 11
353.91
 21
361.481
 31
0.0
  0
LINE
  8
0
 62
     0
 10
353.91
 20
361.481
 30
0.0
 11
353.797
 21
361.333
 31
0.0
  0
LINE
  8
0
 62
     0
 10
353.797
 20
361.333
 30
0.0
 11
353.586
 21
361.354
 31
0.0
  0
LINE
  8
0
 62
     0
 10
353.586
 20
361.354
 30
0.0
 11
353.533
 21
361.386
 31
0.0
  0
LINE
  8
0
 62
     0
 10
353.533
 20
361.386
 30
0.0
 11
353.483
 21
361.417
 31
0.0
  0
LINE
  8
0
 62
     0
 10
353.483
 20
361.417
 30
0.0
 11
353.095
 21
361.396
 31
0.0
  0
LINE
  8
0
 62
     0
 10
353.095
 20
361.396
 30
0.0
 11
352.645
 21
361.16
 31
0.0
  0
LINE
  8
0
 62
     0
 10
352.645
 20
361.16
 30
0.0
 11
352.564
 21
361.086
 31
0.0
  0
LINE
  8
0
 62
     0
 10
352.564
 20
361.086
 30
0.0
 11
352.481
 21
361.015
 31
0.0
  0
LINE
  8
0
 62
     0
 10
352.481
 20
361.015
 30
0.0
 11
351.686
 21
360.592
 31
0.0
  0
LINE
  8
0
 62
     0
 10
351.686
 20
360.592
 30
0.0
 11
350.627
 21
360.2
 31
0.0
  0
LINE
  8
0
 62
     0
 10
350.627
 20
360.2
 30
0.0
 11
350.413
 21
360.144
 31
0.0
  0
LINE
  8
0
 62
     0
 10
350.413
 20
360.144
 30
0.0
 11
350.199
 21
360.084
 31
0.0
  0
LINE
  8
0
 62
     0
 10
350.199
 20
360.084
 30
0.0
 11
349.098
 21
359.71
 31
0.0
  0
LINE
  8
0
 62
     0
 10
349.098
 20
359.71
 30
0.0
 11
348.221
 21
359.322
 31
0.0
  0
LINE
  8
0
 62
     0
 10
348.221
 20
359.322
 30
0.0
 11
348.12
 21
359.255
 31
0.0
  0
LINE
  8
0
 62
     0
 10
348.12
 20
359.255
 30
0.0
 11
348.018
 21
359.191
 31
0.0
  0
LINE
  8
0
 62
     0
 10
348.018
 20
359.191
 30
0.0
 11
347.597
 21
359.022
 31
0.0
  0
LINE
  8
0
 62
     0
 10
347.597
 20
359.022
 30
0.0
 11
346.718
 21
358.736
 31
0.0
  0
LINE
  8
0
 62
     0
 10
346.718
 20
358.736
 30
0.0
 11
345.607
 21
358.436
 31
0.0
  0
LINE
  8
0
 62
     0
 10
345.607
 20
358.436
 30
0.0
 11
344.69
 21
358.221
 31
0.0
  0
LINE
  8
0
 62
     0
 10
344.69
 20
358.221
 30
0.0
 11
344.384
 21
358.158
 31
0.0
  0
LINE
  8
0
 62
     0
 10
344.384
 20
358.158
 30
0.0
 11
344.088
 21
358.094
 31
0.0
  0
LINE
  8
0
 62
     0
 10
344.088
 20
358.094
 30
0.0
 11
343.206
 21
357.897
 31
0.0
  0
LINE
  8
0
 62
     0
 10
343.206
 20
357.897
 30
0.0
 11
342.214
 21
357.653
 31
0.0
  0
LINE
  8
0
 62
     0
 10
342.214
 20
357.653
 30
0.0
 11
341.514
 21
357.449
 31
0.0
  0
LINE
  8
0
 62
     0
 10
341.514
 20
357.449
 30
0.0
 11
341.232
 21
357.346
 31
0.0
  0
LINE
  8
0
 62
     0
 10
341.232
 20
357.346
 30
0.0
 11
341.209
 21
357.318
 31
0.0
  0
LINE
  8
0
 62
     0
 10
341.209
 20
357.318
 30
0.0
 11
341.125
 21
357.216
 31
0.0
  0
LINE
  8
0
 62
     0
 10
341.125
 20
357.216
 30
0.0
 11
340.378
 21
356.972
 31
0.0
  0
LINE
  8
0
 62
     0
 10
340.378
 20
356.972
 30
0.0
 11
338.565
 21
356.577
 31
0.0
  0
LINE
  8
0
 62
     0
 10
338.565
 20
356.577
 30
0.0
 11
336.03
 21
356.179
 31
0.0
  0
LINE
  8
0
 62
     0
 10
336.03
 20
356.179
 30
0.0
 11
333.79
 21
355.903
 31
0.0
  0
LINE
  8
0
 62
     0
 10
333.79
 20
355.903
 30
0.0
 11
333.043
 21
355.826
 31
0.0
  0
LINE
  8
0
 62
     0
 10
333.043
 20
355.826
 30
0.0
 11
332.636
 21
355.787
 31
0.0
  0
LINE
  8
0
 62
     0
 10
332.636
 20
355.787
 30
0.0
 11
331.42
 21
355.642
 31
0.0
  0
LINE
  8
0
 62
     0
 10
331.42
 20
355.642
 30
0.0
 11
330.09
 21
355.448
 31
0.0
  0
LINE
  8
0
 62
     0
 10
330.09
 20
355.448
 30
0.0
 11
329.191
 21
355.272
 31
0.0
  0
LINE
  8
0
 62
     0
 10
329.191
 20
355.272
 30
0.0
 11
328.862
 21
355.163
 31
0.0
  0
LINE
  8
0
 62
     0
 10
328.862
 20
355.163
 30
0.0
 11
328.862
 21
355.127
 31
0.0
  0
LINE
  8
0
 62
     0
 10
328.862
 20
355.127
 30
0.0
 11
328.862
 21
355.103
 31
0.0
  0
LINE
  8
0
 62
     0
 10
328.862
 20
355.103
 30
0.0
 11
328.584
 21
355.018
 31
0.0
  0
LINE
  8
0
 62
     0
 10
328.584
 20
355.018
 30
0.0
 11
327.826
 21
354.93
 31
0.0
  0
LINE
  8
0
 62
     0
 10
327.826
 20
354.93
 30
0.0
 11
326.704
 21
354.87
 31
0.0
  0
LINE
  8
0
 62
     0
 10
326.704
 20
354.87
 30
0.0
 11
325.676
 21
354.845
 31
0.0
  0
LINE
  8
0
 62
     0
 10
325.676
 20
354.845
 30
0.0
 11
325.334
 21
354.845
 31
0.0
  0
LINE
  8
0
 62
     0
 10
325.334
 20
354.845
 30
0.0
 11
324.991
 21
354.845
 31
0.0
  0
LINE
  8
0
 62
     0
 10
324.991
 20
354.845
 30
0.0
 11
323.964
 21
354.87
 31
0.0
  0
LINE
  8
0
 62
     0
 10
323.964
 20
354.87
 30
0.0
 11
322.843
 21
354.937
 31
0.0
  0
LINE
  8
0
 62
     0
 10
322.843
 20
354.937
 30
0.0
 11
322.085
 21
355.032
 31
0.0
  0
LINE
  8
0
 62
     0
 10
322.085
 20
355.032
 30
0.0
 11
321.806
 21
355.12
 31
0.0
  0
LINE
  8
0
 62
     0
 10
321.806
 20
355.12
 30
0.0
 11
321.806
 21
355.148
 31
0.0
  0
LINE
  8
0
 62
     0
 10
321.806
 20
355.148
 30
0.0
 11
321.806
 21
355.184
 31
0.0
  0
LINE
  8
0
 62
     0
 10
321.806
 20
355.184
 30
0.0
 11
321.59
 21
355.282
 31
0.0
  0
LINE
  8
0
 62
     0
 10
321.59
 20
355.282
 30
0.0
 11
321
 21
355.431
 31
0.0
  0
LINE
  8
0
 62
     0
 10
321
 20
355.431
 30
0.0
 11
320.129
 21
355.568
 31
0.0
  0
LINE
  8
0
 62
     0
 10
320.129
 20
355.568
 30
0.0
 11
319.331
 21
355.656
 31
0.0
  0
LINE
  8
0
 62
     0
 10
319.331
 20
355.656
 30
0.0
 11
319.066
 21
355.678
 31
0.0
  0
LINE
  8
0
 62
     0
 10
319.066
 20
355.678
 30
0.0
 11
318.404
 21
355.734
 31
0.0
  0
LINE
  8
0
 62
     0
 10
318.404
 20
355.734
 30
0.0
 11
316.425
 21
355.977
 31
0.0
  0
LINE
  8
0
 62
     0
 10
316.425
 20
355.977
 30
0.0
 11
313.691
 21
356.411
 31
0.0
  0
LINE
  8
0
 62
     0
 10
313.691
 20
356.411
 30
0.0
 11
311.375
 21
356.884
 31
0.0
  0
LINE
  8
0
 62
     0
 10
311.375
 20
356.884
 30
0.0
 11
310.238
 21
357.188
 31
0.0
  0
LINE
  8
0
 62
     0
 10
310.238
 20
357.188
 30
0.0
 11
309.988
 21
357.307
 31
0.0
  0
LINE
  8
0
 62
     0
 10
309.988
 20
357.307
 30
0.0
 11
309.891
 21
357.357
 31
0.0
  0
LINE
  8
0
 62
     0
 10
309.891
 20
357.357
 30
0.0
 11
309.45
 21
357.501
 31
0.0
  0
LINE
  8
0
 62
     0
 10
309.45
 20
357.501
 30
0.0
 11
308.506
 21
357.763
 31
0.0
  0
LINE
  8
0
 62
     0
 10
308.506
 20
357.763
 30
0.0
 11
307.287
 21
358.066
 31
0.0
  0
LINE
  8
0
 62
     0
 10
307.287
 20
358.066
 30
0.0
 11
306.27
 21
358.299
 31
0.0
  0
LINE
  8
0
 62
     0
 10
306.27
 20
358.299
 30
0.0
 11
305.931
 21
358.369
 31
0.0
  0
LINE
  8
0
 62
     0
 10
305.931
 20
358.369
 30
0.0
 11
305.602
 21
358.44
 31
0.0
  0
LINE
  8
0
 62
     0
 10
305.602
 20
358.44
 30
0.0
 11
304.621
 21
358.676
 31
0.0
  0
LINE
  8
0
 62
     0
 10
304.621
 20
358.676
 30
0.0
 11
303.529
 21
358.98
 31
0.0
  0
LINE
  8
0
 62
     0
 10
303.529
 20
358.98
 30
0.0
 11
302.773
 21
359.244
 31
0.0
  0
LINE
  8
0
 62
     0
 10
302.773
 20
359.244
 30
0.0
 11
302.478
 21
359.389
 31
0.0
  0
LINE
  8
0
 62
     0
 10
302.478
 20
359.389
 30
0.0
 11
302.463
 21
359.435
 31
0.0
  0
LINE
  8
0
 62
     0
 10
302.463
 20
359.435
 30
0.0
 11
302.446
 21
359.484
 31
0.0
  0
LINE
  8
0
 62
     0
 10
302.446
 20
359.484
 30
0.0
 11
302.222
 21
359.682
 31
0.0
  0
LINE
  8
0
 62
     0
 10
302.222
 20
359.682
 30
0.0
 11
301.91
 21
359.784
 31
0.0
  0
LINE
  8
0
 62
     0
 10
301.91
 20
359.784
 30
0.0
 11
301.807
 21
359.784
 31
0.0
  0
LINE
  8
0
 62
     0
 10
301.807
 20
359.784
 30
0.0
 11
301.611
 21
359.784
 31
0.0
  0
LINE
  8
0
 62
     0
 10
301.611
 20
359.784
 30
0.0
 11
301.024
 21
359.996
 31
0.0
  0
LINE
  8
0
 62
     0
 10
301.024
 20
359.996
 30
0.0
 11
299.472
 21
360.634
 31
0.0
  0
LINE
  8
0
 62
     0
 10
299.472
 20
360.634
 30
0.0
 11
297.12
 21
361.71
 31
0.0
  0
LINE
  8
0
 62
     0
 10
297.12
 20
361.71
 30
0.0
 11
294.729
 21
362.857
 31
0.0
  0
LINE
  8
0
 62
     0
 10
294.729
 20
362.857
 30
0.0
 11
293.937
 21
363.245
 31
0.0
  0
LINE
  8
0
 62
     0
 10
293.937
 20
363.245
 30
0.0
 11
293.394
 21
363.513
 31
0.0
  0
LINE
  8
0
 62
     0
 10
293.394
 20
363.513
 30
0.0
 11
291.801
 21
364.381
 31
0.0
  0
LINE
  8
0
 62
     0
 10
291.801
 20
364.381
 30
0.0
 11
289.646
 21
365.682
 31
0.0
  0
LINE
  8
0
 62
     0
 10
289.646
 20
365.682
 30
0.0
 11
287.712
 21
366.995
 31
0.0
  0
LINE
  8
0
 62
     0
 10
287.712
 20
366.995
 30
0.0
 11
286.591
 21
367.852
 31
0.0
  0
LINE
  8
0
 62
     0
 10
286.591
 20
367.852
 30
0.0
 11
286.245
 21
368.162
 31
0.0
  0
LINE
  8
0
 62
     0
 10
286.245
 20
368.162
 30
0.0
 11
286.124
 21
368.275
 31
0.0
  0
LINE
  8
0
 62
     0
 10
286.124
 20
368.275
 30
0.0
 11
285.485
 21
368.723
 31
0.0
  0
LINE
  8
0
 62
     0
 10
285.485
 20
368.723
 30
0.0
 11
285.04
 21
368.956
 31
0.0
  0
LINE
  8
0
 62
     0
 10
285.04
 20
368.956
 30
0.0
 11
284.893
 21
368.956
 31
0.0
  0
LINE
  8
0
 62
     0
 10
284.893
 20
368.956
 30
0.0
 11
284.776
 21
368.956
 31
0.0
  0
LINE
  8
0
 62
     0
 10
284.776
 20
368.956
 30
0.0
 11
284.429
 21
369.164
 31
0.0
  0
LINE
  8
0
 62
     0
 10
284.429
 20
369.164
 30
0.0
 11
284.038
 21
369.566
 31
0.0
  0
LINE
  8
0
 62
     0
 10
284.038
 20
369.566
 30
0.0
 11
283.978
 21
369.662
 31
0.0
  0
LINE
  8
0
 62
     0
 10
283.978
 20
369.662
 30
0.0
 11
283.917
 21
369.761
 31
0.0
  0
LINE
  8
0
 62
     0
 10
283.917
 20
369.761
 30
0.0
 11
283.541
 21
370.163
 31
0.0
  0
LINE
  8
0
 62
     0
 10
283.541
 20
370.163
 30
0.0
 11
283.217
 21
370.367
 31
0.0
  0
LINE
  8
0
 62
     0
 10
283.217
 20
370.367
 30
0.0
 11
283.11
 21
370.367
 31
0.0
  0
LINE
  8
0
 62
     0
 10
283.11
 20
370.367
 30
0.0
 11
282.95
 21
370.367
 31
0.0
  0
LINE
  8
0
 62
     0
 10
282.95
 20
370.367
 30
0.0
 11
282.47
 21
370.822
 31
0.0
  0
LINE
  8
0
 62
     0
 10
282.47
 20
370.822
 30
0.0
 11
281.141
 21
372.022
 31
0.0
  0
LINE
  8
0
 62
     0
 10
281.141
 20
372.022
 30
0.0
 11
279.35
 21
373.747
 31
0.0
  0
LINE
  8
0
 62
     0
 10
279.35
 20
373.747
 30
0.0
 11
277.329
 21
375.754
 31
0.0
  0
LINE
  8
0
 62
     0
 10
277.329
 20
375.754
 30
0.0
 11
275.305
 21
377.825
 31
0.0
  0
LINE
  8
0
 62
     0
 10
275.305
 20
377.825
 30
0.0
 11
273.508
 21
379.716
 31
0.0
  0
LINE
  8
0
 62
     0
 10
273.508
 20
379.716
 30
0.0
 11
272.165
 21
381.208
 31
0.0
  0
LINE
  8
0
 62
     0
 10
272.165
 20
381.208
 30
0.0
 11
271.631
 21
381.825
 31
0.0
  0
LINE
  8
0
 62
     0
 10
271.631
 20
381.825
 30
0.0
 11
271.509
 21
382.058
 31
0.0
  0
LINE
  8
0
 62
     0
 10
271.509
 20
382.058
 30
0.0
 11
271.439
 21
382.196
 31
0.0
  0
LINE
  8
0
 62
     0
 10
271.439
 20
382.196
 30
0.0
 11
270.918
 21
383.007
 31
0.0
  0
LINE
  8
0
 62
     0
 10
270.918
 20
383.007
 30
0.0
 11
270.32
 21
383.787
 31
0.0
  0
LINE
  8
0
 62
     0
 10
270.32
 20
383.787
 30
0.0
 11
270.211
 21
383.903
 31
0.0
  0
LINE
  8
0
 62
     0
 10
270.211
 20
383.903
 30
0.0
 11
269.845
 21
384.306
 31
0.0
  0
LINE
  8
0
 62
     0
 10
269.845
 20
384.306
 30
0.0
 11
268.829
 21
385.576
 31
0.0
  0
LINE
  8
0
 62
     0
 10
268.829
 20
385.576
 30
0.0
 11
267.359
 21
387.579
 31
0.0
  0
LINE
  8
0
 62
     0
 10
267.359
 20
387.579
 30
0.0
 11
266.19
 21
389.357
 31
0.0
  0
LINE
  8
0
 62
     0
 10
266.19
 20
389.357
 30
0.0
 11
265.715
 21
390.102
 31
0.0
  0
LINE
  8
0
 62
     0
 10
265.715
 20
390.102
 30
0.0
 11
265.715
 21
390.349
 31
0.0
  0
LINE
  8
0
 62
     0
 10
265.715
 20
390.349
 30
0.0
 11
265.715
 21
390.423
 31
0.0
  0
LINE
  8
0
 62
     0
 10
265.715
 20
390.423
 30
0.0
 11
265.617
 21
390.645
 31
0.0
  0
LINE
  8
0
 62
     0
 10
265.617
 20
390.645
 30
0.0
 11
265.351
 21
391.16
 31
0.0
  0
LINE
  8
0
 62
     0
 10
265.351
 20
391.16
 30
0.0
 11
264.958
 21
391.816
 31
0.0
  0
LINE
  8
0
 62
     0
 10
264.958
 20
391.816
 30
0.0
 11
264.603
 21
392.366
 31
0.0
  0
LINE
  8
0
 62
     0
 10
264.603
 20
392.366
 30
0.0
 11
264.48
 21
392.546
 31
0.0
  0
LINE
  8
0
 62
     0
 10
264.48
 20
392.546
 30
0.0
 11
264.357
 21
392.723
 31
0.0
  0
LINE
  8
0
 62
     0
 10
264.357
 20
392.723
 30
0.0
 11
264.001
 21
393.259
 31
0.0
  0
LINE
  8
0
 62
     0
 10
264.001
 20
393.259
 30
0.0
 11
263.608
 21
393.88
 31
0.0
  0
LINE
  8
0
 62
     0
 10
263.608
 20
393.88
 30
0.0
 11
263.342
 21
394.339
 31
0.0
  0
LINE
  8
0
 62
     0
 10
263.342
 20
394.339
 30
0.0
 11
263.245
 21
394.511
 31
0.0
  0
LINE
  8
0
 62
     0
 10
263.245
 20
394.511
 30
0.0
 11
263.245
 21
394.568
 31
0.0
  0
LINE
  8
0
 62
     0
 10
263.245
 20
394.568
 30
0.0
 11
263.245
 21
394.631
 31
0.0
  0
LINE
  8
0
 62
     0
 10
263.245
 20
394.631
 30
0.0
 11
263.165
 21
394.815
 31
0.0
  0
LINE
  8
0
 62
     0
 10
263.165
 20
394.815
 30
0.0
 11
262.952
 21
395.316
 31
0.0
  0
LINE
  8
0
 62
     0
 10
262.952
 20
395.316
 30
0.0
 11
262.634
 21
395.993
 31
0.0
  0
LINE
  8
0
 62
     0
 10
262.634
 20
395.993
 30
0.0
 11
262.344
 21
396.586
 31
0.0
  0
LINE
  8
0
 62
     0
 10
262.344
 20
396.586
 30
0.0
 11
262.246
 21
396.783
 31
0.0
  0
LINE
  8
0
 62
     0
 10
262.246
 20
396.783
 30
0.0
 11
262.133
 21
397.006
 31
0.0
  0
LINE
  8
0
 62
     0
 10
262.133
 20
397.006
 30
0.0
 11
261.818
 21
397.686
 31
0.0
  0
LINE
  8
0
 62
     0
 10
261.818
 20
397.686
 30
0.0
 11
261.395
 21
398.678
 31
0.0
  0
LINE
  8
0
 62
     0
 10
261.395
 20
398.678
 30
0.0
 11
261.025
 21
399.637
 31
0.0
  0
LINE
  8
0
 62
     0
 10
261.025
 20
399.637
 30
0.0
 11
260.816
 21
400.241
 31
0.0
  0
LINE
  8
0
 62
     0
 10
260.816
 20
400.241
 30
0.0
 11
260.758
 21
400.442
 31
0.0
  0
LINE
  8
0
 62
     0
 10
260.758
 20
400.442
 30
0.0
 11
260.71
 21
400.607
 31
0.0
  0
LINE
  8
0
 62
     0
 10
260.71
 20
400.607
 30
0.0
 11
260.549
 21
401.094
 31
0.0
  0
LINE
  8
0
 62
     0
 10
260.549
 20
401.094
 30
0.0
 11
260.343
 21
401.627
 31
0.0
  0
LINE
  8
0
 62
     0
 10
260.343
 20
401.627
 30
0.0
 11
260.164
 21
401.987
 31
0.0
  0
LINE
  8
0
 62
     0
 10
260.164
 20
401.987
 30
0.0
 11
260.066
 21
402.117
 31
0.0
  0
LINE
  8
0
 62
     0
 10
260.066
 20
402.117
 30
0.0
 11
260.034
 21
402.117
 31
0.0
  0
LINE
  8
0
 62
     0
 10
260.034
 20
402.117
 30
0.0
 11
259.978
 21
402.117
 31
0.0
  0
LINE
  8
0
 62
     0
 10
259.978
 20
402.117
 30
0.0
 11
259.813
 21
402.354
 31
0.0
  0
LINE
  8
0
 62
     0
 10
259.813
 20
402.354
 30
0.0
 11
259.636
 21
402.802
 31
0.0
  0
LINE
  8
0
 62
     0
 10
259.636
 20
402.802
 30
0.0
 11
259.611
 21
402.911
 31
0.0
  0
LINE
  8
0
 62
     0
 10
259.611
 20
402.911
 30
0.0
 11
259.556
 21
403.144
 31
0.0
  0
LINE
  8
0
 62
     0
 10
259.556
 20
403.144
 30
0.0
 11
259.328
 21
403.888
 31
0.0
  0
LINE
  8
0
 62
     0
 10
259.328
 20
403.888
 30
0.0
 11
258.881
 21
405.211
 31
0.0
  0
LINE
  8
0
 62
     0
 10
258.881
 20
405.211
 30
0.0
 11
258.389
 21
406.555
 31
0.0
  0
LINE
  8
0
 62
     0
 10
258.389
 20
406.555
 30
0.0
 11
258.082
 21
407.331
 31
0.0
  0
LINE
  8
0
 62
     0
 10
258.082
 20
407.331
 30
0.0
 11
257.967
 21
407.585
 31
0.0
  0
LINE
  8
0
 62
     0
 10
257.967
 20
407.585
 30
0.0
 11
257.879
 21
407.779
 31
0.0
  0
LINE
  8
0
 62
     0
 10
257.879
 20
407.779
 30
0.0
 11
257.62
 21
408.64
 31
0.0
  0
LINE
  8
0
 62
     0
 10
257.62
 20
408.64
 30
0.0
 11
257.168
 21
410.376
 31
0.0
  0
LINE
  8
0
 62
     0
 10
257.168
 20
410.376
 30
0.0
 11
256.708
 21
412.394
 31
0.0
  0
LINE
  8
0
 62
     0
 10
256.708
 20
412.394
 30
0.0
 11
256.421
 21
413.815
 31
0.0
  0
LINE
  8
0
 62
     0
 10
256.421
 20
413.815
 30
0.0
 11
256.34
 21
414.288
 31
0.0
  0
LINE
  8
0
 62
     0
 10
256.34
 20
414.288
 30
0.0
 11
256.307
 21
414.482
 31
0.0
  0
LINE
  8
0
 62
     0
 10
256.307
 20
414.482
 30
0.0
 11
256.092
 21
415.389
 31
0.0
  0
LINE
  8
0
 62
     0
 10
256.092
 20
415.389
 30
0.0
 11
255.871
 21
416.006
 31
0.0
  0
LINE
  8
0
 62
     0
 10
255.871
 20
416.006
 30
0.0
 11
255.836
 21
416.052
 31
0.0
  0
LINE
  8
0
 62
     0
 10
255.836
 20
416.052
 30
0.0
 11
255.741
 21
416.183
 31
0.0
  0
LINE
  8
0
 62
     0
 10
255.741
 20
416.183
 30
0.0
 11
255.516
 21
417.174
 31
0.0
  0
LINE
  8
0
 62
     0
 10
255.516
 20
417.174
 30
0.0
 11
255.145
 21
419.604
 31
0.0
  0
LINE
  8
0
 62
     0
 10
255.145
 20
419.604
 30
0.0
 11
254.754
 21
423.104
 31
0.0
  0
LINE
  8
0
 62
     0
 10
254.754
 20
423.104
 30
0.0
 11
254.459
 21
426.339
 31
0.0
  0
LINE
  8
0
 62
     0
 10
254.459
 20
426.339
 30
0.0
 11
254.375
 21
427.418
 31
0.0
  0
LINE
  8
0
 62
     0
 10
254.375
 20
427.418
 30
0.0
 11
254.32
 21
428.128
 31
0.0
  0
LINE
  8
0
 62
     0
 10
254.32
 20
428.128
 30
0.0
 11
254.19
 21
430.255
 31
0.0
  0
LINE
  8
0
 62
     0
 10
254.19
 20
430.255
 30
0.0
 11
254.131
 21
432.721
 31
0.0
  0
LINE
  8
0
 62
     0
 10
254.131
 20
432.721
 30
0.0
 11
254.193
 21
435.134
 31
0.0
  0
LINE
  8
0
 62
     0
 10
254.193
 20
435.134
 30
0.0
 11
254.324
 21
437.155
 31
0.0
  0
LINE
  8
0
 62
     0
 10
254.324
 20
437.155
 30
0.0
 11
254.38
 21
437.825
 31
0.0
  0
LINE
  8
0
 62
     0
 10
254.38
 20
437.825
 30
0.0
 11
254.471
 21
438.916
 31
0.0
  0
LINE
  8
0
 62
     0
 10
254.471
 20
438.916
 30
0.0
 11
254.786
 21
442.175
 31
0.0
  0
LINE
  8
0
 62
     0
 10
254.786
 20
442.175
 30
0.0
 11
255.189
 21
445.685
 31
0.0
  0
LINE
  8
0
 62
     0
 10
255.189
 20
445.685
 30
0.0
 11
255.553
 21
448.067
 31
0.0
  0
LINE
  8
0
 62
     0
 10
255.553
 20
448.067
 30
0.0
 11
255.761
 21
448.98
 31
0.0
  0
LINE
  8
0
 62
     0
 10
255.761
 20
448.98
 30
0.0
 11
255.84
 21
449.037
 31
0.0
  0
LINE
  8
0
 62
     0
 10
255.84
 20
449.037
 30
0.0
 11
255.871
 21
449.061
 31
0.0
  0
LINE
  8
0
 62
     0
 10
255.871
 20
449.061
 30
0.0
 11
255.965
 21
449.287
 31
0.0
  0
LINE
  8
0
 62
     0
 10
255.965
 20
449.287
 30
0.0
 11
256.13
 21
449.838
 31
0.0
  0
LINE
  8
0
 62
     0
 10
256.13
 20
449.838
 30
0.0
 11
256.316
 21
450.603
 31
0.0
  0
LINE
  8
0
 62
     0
 10
256.316
 20
450.603
 30
0.0
 11
256.457
 21
451.28
 31
0.0
  0
LINE
  8
0
 62
     0
 10
256.457
 20
451.28
 30
0.0
 11
256.5
 21
451.506
 31
0.0
  0
LINE
  8
0
 62
     0
 10
256.5
 20
451.506
 30
0.0
 11
256.61
 21
452.113
 31
0.0
  0
LINE
  8
0
 62
     0
 10
256.61
 20
452.113
 30
0.0
 11
256.975
 21
453.919
 31
0.0
  0
LINE
  8
0
 62
     0
 10
256.975
 20
453.919
 30
0.0
 11
257.394
 21
455.69
 31
0.0
  0
LINE
  8
0
 62
     0
 10
257.394
 20
455.69
 30
0.0
 11
257.745
 21
456.78
 31
0.0
  0
LINE
  8
0
 62
     0
 10
257.745
 20
456.78
 30
0.0
 11
257.952
 21
457.151
 31
0.0
  0
LINE
  8
0
 62
     0
 10
257.952
 20
457.151
 30
0.0
 11
258.021
 21
457.151
 31
0.0
  0
LINE
  8
0
 62
     0
 10
258.021
 20
457.151
 30
0.0
 11
258.071
 21
457.151
 31
0.0
  0
LINE
  8
0
 62
     0
 10
258.071
 20
457.151
 30
0.0
 11
258.222
 21
457.32
 31
0.0
  0
LINE
  8
0
 62
     0
 10
258.222
 20
457.32
 30
0.0
 11
258.306
 21
457.623
 31
0.0
  0
LINE
  8
0
 62
     0
 10
258.306
 20
457.623
 30
0.0
 11
258.306
 21
457.722
 31
0.0
  0
LINE
  8
0
 62
     0
 10
258.306
 20
457.722
 30
0.0
 11
258.306
 21
457.828
 31
0.0
  0
LINE
  8
0
 62
     0
 10
258.306
 20
457.828
 30
0.0
 11
258.37
 21
458.142
 31
0.0
  0
LINE
  8
0
 62
     0
 10
258.37
 20
458.142
 30
0.0
 11
258.542
 21
458.823
 31
0.0
  0
LINE
  8
0
 62
     0
 10
258.542
 20
458.823
 30
0.0
 11
258.791
 21
459.673
 31
0.0
  0
LINE
  8
0
 62
     0
 10
258.791
 20
459.673
 30
0.0
 11
259.086
 21
460.597
 31
0.0
  0
LINE
  8
0
 62
     0
 10
259.086
 20
460.597
 30
0.0
 11
259.395
 21
461.504
 31
0.0
  0
LINE
  8
0
 62
     0
 10
259.395
 20
461.504
 30
0.0
 11
259.689
 21
462.291
 31
0.0
  0
LINE
  8
0
 62
     0
 10
259.689
 20
462.291
 30
0.0
 11
259.932
 21
462.873
 31
0.0
  0
LINE
  8
0
 62
     0
 10
259.932
 20
462.873
 30
0.0
 11
260.04
 21
463.102
 31
0.0
  0
LINE
  8
0
 62
     0
 10
260.04
 20
463.102
 30
0.0
 11
260.099
 21
463.148
 31
0.0
  0
LINE
  8
0
 62
     0
 10
260.099
 20
463.148
 30
0.0
 11
260.128
 21
463.173
 31
0.0
  0
LINE
  8
0
 62
     0
 10
260.128
 20
463.173
 30
0.0
 11
260.233
 21
463.381
 31
0.0
  0
LINE
  8
0
 62
     0
 10
260.233
 20
463.381
 30
0.0
 11
260.44
 21
463.878
 31
0.0
  0
LINE
  8
0
 62
     0
 10
260.44
 20
463.878
 30
0.0
 11
260.69
 21
464.573
 31
0.0
  0
LINE
  8
0
 62
     0
 10
260.69
 20
464.573
 30
0.0
 11
260.893
 21
465.183
 31
0.0
  0
LINE
  8
0
 62
     0
 10
260.893
 20
465.183
 30
0.0
 11
260.958
 21
465.388
 31
0.0
  0
LINE
  8
0
 62
     0
 10
260.958
 20
465.388
 30
0.0
 11
261.022
 21
465.596
 31
0.0
  0
LINE
  8
0
 62
     0
 10
261.022
 20
465.596
 30
0.0
 11
261.24
 21
466.224
 31
0.0
  0
LINE
  8
0
 62
     0
 10
261.24
 20
466.224
 30
0.0
 11
261.539
 21
466.972
 31
0.0
  0
LINE
  8
0
 62
     0
 10
261.539
 20
466.972
 30
0.0
 11
261.818
 21
467.558
 31
0.0
  0
LINE
  8
0
 62
     0
 10
261.818
 20
467.558
 30
0.0
 11
261.979
 21
467.829
 31
0.0
  0
LINE
  8
0
 62
     0
 10
261.979
 20
467.829
 30
0.0
 11
262.039
 21
467.889
 31
0.0
  0
LINE
  8
0
 62
     0
 10
262.039
 20
467.889
 30
0.0
 11
262.158
 21
468.016
 31
0.0
  0
LINE
  8
0
 62
     0
 10
262.158
 20
468.016
 30
0.0
 11
262.402
 21
468.514
 31
0.0
  0
LINE
  8
0
 62
     0
 10
262.402
 20
468.514
 30
0.0
 11
262.909
 21
469.681
 31
0.0
  0
LINE
  8
0
 62
     0
 10
262.909
 20
469.681
 30
0.0
 11
263.526
 21
471.258
 31
0.0
  0
LINE
  8
0
 62
     0
 10
263.526
 20
471.258
 30
0.0
 11
264.221
 21
473.093
 31
0.0
  0
LINE
  8
0
 62
     0
 10
264.221
 20
473.093
 30
0.0
 11
264.958
 21
475.047
 31
0.0
  0
LINE
  8
0
 62
     0
 10
264.958
 20
475.047
 30
0.0
 11
265.708
 21
476.977
 31
0.0
  0
LINE
  8
0
 62
     0
 10
265.708
 20
476.977
 30
0.0
 11
266.434
 21
478.737
 31
0.0
  0
LINE
  8
0
 62
     0
 10
266.434
 20
478.737
 30
0.0
 11
266.925
 21
479.834
 31
0.0
  0
LINE
  8
0
 62
     0
 10
266.925
 20
479.834
 30
0.0
 11
267.105
 21
480.187
 31
0.0
  0
LINE
  8
0
 62
     0
 10
267.105
 20
480.187
 30
0.0
 11
267.395
 21
480.748
 31
0.0
  0
LINE
  8
0
 62
     0
 10
267.395
 20
480.748
 30
0.0
 11
268.288
 21
482.417
 31
0.0
  0
LINE
  8
0
 62
     0
 10
268.288
 20
482.417
 30
0.0
 11
269.256
 21
484.12
 31
0.0
  0
LINE
  8
0
 62
     0
 10
269.256
 20
484.12
 30
0.0
 11
269.988
 21
485.263
 31
0.0
  0
LINE
  8
0
 62
     0
 10
269.988
 20
485.263
 30
0.0
 11
270.349
 21
485.733
 31
0.0
  0
LINE
  8
0
 62
     0
 10
270.349
 20
485.733
 30
0.0
 11
270.462
 21
485.81
 31
0.0
  0
LINE
  8
0
 62
     0
 10
270.462
 20
485.81
 30
0.0
 11
270.515
 21
485.846
 31
0.0
  0
LINE
  8
0
 62
     0
 10
270.515
 20
485.846
 30
0.0
 11
270.638
 21
486.004
 31
0.0
  0
LINE
  8
0
 62
     0
 10
270.638
 20
486.004
 30
0.0
 11
270.517
 21
486.078
 31
0.0
  0
LINE
  8
0
 62
     0
 10
270.517
 20
486.078
 30
0.0
 11
270.477
 21
486.078
 31
0.0
  0
LINE
  8
0
 62
     0
 10
270.477
 20
486.078
 30
0.0
 11
270.443
 21
486.082
 31
0.0
  0
LINE
  8
0
 62
     0
 10
270.443
 20
486.082
 30
0.0
 11
270.345
 21
486.163
 31
0.0
  0
LINE
  8
0
 62
     0
 10
270.345
 20
486.163
 30
0.0
 11
270.473
 21
486.318
 31
0.0
  0
LINE
  8
0
 62
     0
 10
270.473
 20
486.318
 30
0.0
 11
270.527
 21
486.35
 31
0.0
  0
LINE
  8
0
 62
     0
 10
270.527
 20
486.35
 30
0.0
 11
270.582
 21
486.385
 31
0.0
  0
LINE
  8
0
 62
     0
 10
270.582
 20
486.385
 30
0.0
 11
270.983
 21
486.897
 31
0.0
  0
LINE
  8
0
 62
     0
 10
270.983
 20
486.897
 30
0.0
 11
271.438
 21
487.673
 31
0.0
  0
LINE
  8
0
 62
     0
 10
271.438
 20
487.673
 30
0.0
 11
271.52
 21
487.842
 31
0.0
  0
LINE
  8
0
 62
     0
 10
271.52
 20
487.842
 30
0.0
 11
271.745
 21
488.315
 31
0.0
  0
LINE
  8
0
 62
     0
 10
271.745
 20
488.315
 30
0.0
 11
273.069
 21
490.813
 31
0.0
  0
LINE
  8
0
 62
     0
 10
273.069
 20
490.813
 30
0.0
 11
274.546
 21
493.31
 31
0.0
  0
LINE
  8
0
 62
     0
 10
274.546
 20
493.31
 30
0.0
 11
274.85
 21
493.783
 31
0.0
  0
LINE
  8
0
 62
     0
 10
274.85
 20
493.783
 30
0.0
 11
274.959
 21
493.956
 31
0.0
  0
LINE
  8
0
 62
     0
 10
274.959
 20
493.956
 30
0.0
 11
275.276
 21
494.478
 31
0.0
  0
LINE
  8
0
 62
     0
 10
275.276
 20
494.478
 30
0.0
 11
275.623
 21
495.106
 31
0.0
  0
LINE
  8
0
 62
     0
 10
275.623
 20
495.106
 30
0.0
 11
275.858
 21
495.596
 31
0.0
  0
LINE
  8
0
 62
     0
 10
275.858
 20
495.596
 30
0.0
 11
275.945
 21
495.812
 31
0.0
  0
LINE
  8
0
 62
     0
 10
275.945
 20
495.812
 30
0.0
 11
275.945
 21
495.882
 31
0.0
  0
LINE
  8
0
 62
     0
 10
275.945
 20
495.882
 30
0.0
 11
275.945
 21
495.974
 31
0.0
  0
LINE
  8
0
 62
     0
 10
275.945
 20
495.974
 30
0.0
 11
276.079
 21
496.242
 31
0.0
  0
LINE
  8
0
 62
     0
 10
276.079
 20
496.242
 30
0.0
 11
276.341
 21
496.517
 31
0.0
  0
LINE
  8
0
 62
     0
 10
276.341
 20
496.517
 30
0.0
 11
276.404
 21
496.556
 31
0.0
  0
LINE
  8
0
 62
     0
 10
276.404
 20
496.556
 30
0.0
 11
276.506
 21
496.619
 31
0.0
  0
LINE
  8
0
 62
     0
 10
276.506
 20
496.619
 30
0.0
 11
276.743
 21
496.919
 31
0.0
  0
LINE
  8
0
 62
     0
 10
276.743
 20
496.919
 30
0.0
 11
277.288
 21
497.681
 31
0.0
  0
LINE
  8
0
 62
     0
 10
277.288
 20
497.681
 30
0.0
 11
277.985
 21
498.75
 31
0.0
  0
LINE
  8
0
 62
     0
 10
277.985
 20
498.75
 30
0.0
 11
278.783
 21
500.045
 31
0.0
  0
LINE
  8
0
 62
     0
 10
278.783
 20
500.045
 30
0.0
 11
279.629
 21
501.477
 31
0.0
  0
LINE
  8
0
 62
     0
 10
279.629
 20
501.477
 30
0.0
 11
280.472
 21
502.962
 31
0.0
  0
LINE
  8
0
 62
     0
 10
280.472
 20
502.962
 30
0.0
 11
281.26
 21
504.416
 31
0.0
  0
LINE
  8
0
 62
     0
 10
281.26
 20
504.416
 30
0.0
 11
281.778
 21
505.411
 31
0.0
  0
LINE
  8
0
 62
     0
 10
281.778
 20
505.411
 30
0.0
 11
281.944
 21
505.746
 31
0.0
  0
LINE
  8
0
 62
     0
 10
281.944
 20
505.746
 30
0.0
 11
282.015
 21
505.897
 31
0.0
  0
LINE
  8
0
 62
     0
 10
282.015
 20
505.897
 30
0.0
 11
282.253
 21
506.331
 31
0.0
  0
LINE
  8
0
 62
     0
 10
282.253
 20
506.331
 30
0.0
 11
282.549
 21
506.808
 31
0.0
  0
LINE
  8
0
 62
     0
 10
282.549
 20
506.808
 30
0.0
 11
282.798
 21
507.129
 31
0.0
  0
LINE
  8
0
 62
     0
 10
282.798
 20
507.129
 30
0.0
 11
282.926
 21
507.245
 31
0.0
  0
LINE
  8
0
 62
     0
 10
282.926
 20
507.245
 30
0.0
 11
282.969
 21
507.245
 31
0.0
  0
LINE
  8
0
 62
     0
 10
282.969
 20
507.245
 30
0.0
 11
283.009
 21
507.245
 31
0.0
  0
LINE
  8
0
 62
     0
 10
283.009
 20
507.245
 30
0.0
 11
283.13
 21
507.379
 31
0.0
  0
LINE
  8
0
 62
     0
 10
283.13
 20
507.379
 30
0.0
 11
283.358
 21
507.739
 31
0.0
  0
LINE
  8
0
 62
     0
 10
283.358
 20
507.739
 30
0.0
 11
283.62
 21
508.272
 31
0.0
  0
LINE
  8
0
 62
     0
 10
283.62
 20
508.272
 30
0.0
 11
283.825
 21
508.758
 31
0.0
  0
LINE
  8
0
 62
     0
 10
283.825
 20
508.758
 30
0.0
 11
283.887
 21
508.921
 31
0.0
  0
LINE
  8
0
 62
     0
 10
283.887
 20
508.921
 30
0.0
 11
283.972
 21
509.154
 31
0.0
  0
LINE
  8
0
 62
     0
 10
283.972
 20
509.154
 30
0.0
 11
284.521
 21
510.293
 31
0.0
  0
LINE
  8
0
 62
     0
 10
284.521
 20
510.293
 30
0.0
 11
285.078
 21
511.143
 31
0.0
  0
LINE
  8
0
 62
     0
 10
285.078
 20
511.143
 30
0.0
 11
285.169
 21
511.228
 31
0.0
  0
LINE
  8
0
 62
     0
 10
285.169
 20
511.228
 30
0.0
 11
285.258
 21
511.316
 31
0.0
  0
LINE
  8
0
 62
     0
 10
285.258
 20
511.316
 30
0.0
 11
285.63
 21
511.768
 31
0.0
  0
LINE
  8
0
 62
     0
 10
285.63
 20
511.768
 30
0.0
 11
285.823
 21
512.075
 31
0.0
  0
LINE
  8
0
 62
     0
 10
285.823
 20
512.075
 30
0.0
 11
285.823
 21
512.177
 31
0.0
  0
LINE
  8
0
 62
     0
 10
285.823
 20
512.177
 30
0.0
 11
285.823
 21
512.24
 31
0.0
  0
LINE
  8
0
 62
     0
 10
285.823
 20
512.24
 30
0.0
 11
285.914
 21
512.427
 31
0.0
  0
LINE
  8
0
 62
     0
 10
285.914
 20
512.427
 30
0.0
 11
286.158
 21
512.911
 31
0.0
  0
LINE
  8
0
 62
     0
 10
286.158
 20
512.911
 30
0.0
 11
286.505
 21
513.539
 31
0.0
  0
LINE
  8
0
 62
     0
 10
286.505
 20
513.539
 30
0.0
 11
286.909
 21
514.234
 31
0.0
  0
LINE
  8
0
 62
     0
 10
286.909
 20
514.234
 30
0.0
 11
287.321
 21
514.914
 31
0.0
  0
LINE
  8
0
 62
     0
 10
287.321
 20
514.914
 30
0.0
 11
287.693
 21
515.5
 31
0.0
  0
LINE
  8
0
 62
     0
 10
287.693
 20
515.5
 30
0.0
 11
287.978
 21
515.913
 31
0.0
  0
LINE
  8
0
 62
     0
 10
287.978
 20
515.913
 30
0.0
 11
288.09
 21
516.064
 31
0.0
  0
LINE
  8
0
 62
     0
 10
288.09
 20
516.064
 30
0.0
 11
288.128
 21
516.064
 31
0.0
  0
LINE
  8
0
 62
     0
 10
497.639
 20
513.63
 30
0.0
 11
498.284
 21
512.819
 31
0.0
  0
LINE
  8
0
 62
     0
 10
498.284
 20
512.819
 30
0.0
 11
498.373
 21
512.706
 31
0.0
  0
LINE
  8
0
 62
     0
 10
498.373
 20
512.706
 30
0.0
 11
498.951
 21
511.806
 31
0.0
  0
LINE
  8
0
 62
     0
 10
498.951
 20
511.806
 30
0.0
 11
499.558
 21
510.716
 31
0.0
  0
LINE
  8
0
 62
     0
 10
499.558
 20
510.716
 30
0.0
 11
499.66
 21
510.508
 31
0.0
  0
LINE
  8
0
 62
     0
 10
499.66
 20
510.508
 30
0.0
 11
499.731
 21
510.364
 31
0.0
  0
LINE
  8
0
 62
     0
 10
499.731
 20
510.364
 30
0.0
 11
499.967
 21
509.926
 31
0.0
  0
LINE
  8
0
 62
     0
 10
499.967
 20
509.926
 30
0.0
 11
500.267
 21
509.45
 31
0.0
  0
LINE
  8
0
 62
     0
 10
500.267
 20
509.45
 30
0.0
 11
500.525
 21
509.129
 31
0.0
  0
LINE
  8
0
 62
     0
 10
500.525
 20
509.129
 30
0.0
 11
500.659
 21
509.009
 31
0.0
  0
LINE
  8
0
 62
     0
 10
500.659
 20
509.009
 30
0.0
 11
500.705
 21
509.009
 31
0.0
  0
LINE
  8
0
 62
     0
 10
500.705
 20
509.009
 30
0.0
 11
500.761
 21
509.009
 31
0.0
  0
LINE
  8
0
 62
     0
 10
500.761
 20
509.009
 30
0.0
 11
500.927
 21
508.864
 31
0.0
  0
LINE
  8
0
 62
     0
 10
500.927
 20
508.864
 30
0.0
 11
501.019
 21
508.6
 31
0.0
  0
LINE
  8
0
 62
     0
 10
501.019
 20
508.6
 30
0.0
 11
501.019
 21
508.512
 31
0.0
  0
LINE
  8
0
 62
     0
 10
501.019
 20
508.512
 30
0.0
 11
501.019
 21
508.399
 31
0.0
  0
LINE
  8
0
 62
     0
 10
501.019
 20
508.399
 30
0.0
 11
501.269
 21
508.046
 31
0.0
  0
LINE
  8
0
 62
     0
 10
501.269
 20
508.046
 30
0.0
 11
501.96
 21
507.143
 31
0.0
  0
LINE
  8
0
 62
     0
 10
501.96
 20
507.143
 30
0.0
 11
502.98
 21
505.933
 31
0.0
  0
LINE
  8
0
 62
     0
 10
502.98
 20
505.933
 30
0.0
 11
503.911
 21
504.889
 31
0.0
  0
LINE
  8
0
 62
     0
 10
503.911
 20
504.889
 30
0.0
 11
504.229
 21
504.543
 31
0.0
  0
LINE
  8
0
 62
     0
 10
504.229
 20
504.543
 30
0.0
 11
504.553
 21
504.19
 31
0.0
  0
LINE
  8
0
 62
     0
 10
504.553
 20
504.19
 30
0.0
 11
505.516
 21
503.107
 31
0.0
  0
LINE
  8
0
 62
     0
 10
505.516
 20
503.107
 30
0.0
 11
506.659
 21
501.756
 31
0.0
  0
LINE
  8
0
 62
     0
 10
506.659
 20
501.756
 30
0.0
 11
507.527
 21
500.645
 31
0.0
  0
LINE
  8
0
 62
     0
 10
507.527
 20
500.645
 30
0.0
 11
507.919
 21
500.084
 31
0.0
  0
LINE
  8
0
 62
     0
 10
507.919
 20
500.084
 30
0.0
 11
507.996
 21
499.925
 31
0.0
  0
LINE
  8
0
 62
     0
 10
507.996
 20
499.925
 30
0.0
 11
508.074
 21
499.77
 31
0.0
  0
LINE
  8
0
 62
     0
 10
508.074
 20
499.77
 30
0.0
 11
508.466
 21
499.117
 31
0.0
  0
LINE
  8
0
 62
     0
 10
508.466
 20
499.117
 30
0.0
 11
508.727
 21
498.778
 31
0.0
  0
LINE
  8
0
 62
     0
 10
508.727
 20
498.778
 30
0.0
 11
508.811
 21
498.778
 31
0.0
  0
LINE
  8
0
 62
     0
 10
508.811
 20
498.778
 30
0.0
 11
508.854
 21
498.778
 31
0.0
  0
LINE
  8
0
 62
     0
 10
508.854
 20
498.778
 30
0.0
 11
508.974
 21
498.648
 31
0.0
  0
LINE
  8
0
 62
     0
 10
508.974
 20
498.648
 30
0.0
 11
509.228
 21
498.288
 31
0.0
  0
LINE
  8
0
 62
     0
 10
509.228
 20
498.288
 30
0.0
 11
509.538
 21
497.755
 31
0.0
  0
LINE
  8
0
 62
     0
 10
509.538
 20
497.755
 30
0.0
 11
509.792
 21
497.268
 31
0.0
  0
LINE
  8
0
 62
     0
 10
509.792
 20
497.268
 30
0.0
 11
509.87
 21
497.103
 31
0.0
  0
LINE
  8
0
 62
     0
 10
509.87
 20
497.103
 30
0.0
 11
509.947
 21
496.937
 31
0.0
  0
LINE
  8
0
 62
     0
 10
509.947
 20
496.937
 30
0.0
 11
510.201
 21
496.439
 31
0.0
  0
LINE
  8
0
 62
     0
 10
510.201
 20
496.439
 30
0.0
 11
510.512
 21
495.868
 31
0.0
  0
LINE
  8
0
 62
     0
 10
510.512
 20
495.868
 30
0.0
 11
510.766
 21
495.452
 31
0.0
  0
LINE
  8
0
 62
     0
 10
510.766
 20
495.452
 30
0.0
 11
510.896
 21
495.272
 31
0.0
  0
LINE
  8
0
 62
     0
 10
510.896
 20
495.272
 30
0.0
 11
510.932
 21
495.247
 31
0.0
  0
LINE
  8
0
 62
     0
 10
510.932
 20
495.247
 30
0.0
 11
511.013
 21
495.194
 31
0.0
  0
LINE
  8
0
 62
     0
 10
511.013
 20
495.194
 30
0.0
 11
511.376
 21
494.637
 31
0.0
  0
LINE
  8
0
 62
     0
 10
511.376
 20
494.637
 30
0.0
 11
512.226
 21
493.145
 31
0.0
  0
LINE
  8
0
 62
     0
 10
512.226
 20
493.145
 30
0.0
 11
513.475
 21
490.784
 31
0.0
  0
LINE
  8
0
 62
     0
 10
513.475
 20
490.784
 30
0.0
 11
514.71
 21
488.382
 31
0.0
  0
LINE
  8
0
 62
     0
 10
514.71
 20
488.382
 30
0.0
 11
515.112
 21
487.578
 31
0.0
  0
LINE
  8
0
 62
     0
 10
515.112
 20
487.578
 30
0.0
 11
515.292
 21
487.228
 31
0.0
  0
LINE
  8
0
 62
     0
 10
515.292
 20
487.228
 30
0.0
 11
515.842
 21
486.177
 31
0.0
  0
LINE
  8
0
 62
     0
 10
515.842
 20
486.177
 30
0.0
 11
516.474
 21
485.027
 31
0.0
  0
LINE
  8
0
 62
     0
 10
516.474
 20
485.027
 30
0.0
 11
516.946
 21
484.251
 31
0.0
  0
LINE
  8
0
 62
     0
 10
516.946
 20
484.251
 30
0.0
 11
517.126
 21
483.962
 31
0.0
  0
LINE
  8
0
 62
     0
 10
517.126
 20
483.962
 30
0.0
 11
517.186
 21
483.962
 31
0.0
  0
LINE
  8
0
 62
     0
 10
517.186
 20
483.962
 30
0.0
 11
517.225
 21
483.962
 31
0.0
  0
LINE
  8
0
 62
     0
 10
517.225
 20
483.962
 30
0.0
 11
517.349
 21
483.789
 31
0.0
  0
LINE
  8
0
 62
     0
 10
517.349
 20
483.789
 30
0.0
 11
517.613
 21
483.316
 31
0.0
  0
LINE
  8
0
 62
     0
 10
517.613
 20
483.316
 30
0.0
 11
517.945
 21
482.614
 31
0.0
  0
LINE
  8
0
 62
     0
 10
517.945
 20
482.614
 30
0.0
 11
518.213
 21
481.976
 31
0.0
  0
LINE
  8
0
 62
     0
 10
518.213
 20
481.976
 30
0.0
 11
518.301
 21
481.757
 31
0.0
  0
LINE
  8
0
 62
     0
 10
518.301
 20
481.757
 30
0.0
 11
518.393
 21
481.524
 31
0.0
  0
LINE
  8
0
 62
     0
 10
518.393
 20
481.524
 30
0.0
 11
518.682
 21
480.818
 31
0.0
  0
LINE
  8
0
 62
     0
 10
518.682
 20
480.818
 30
0.0
 11
519.084
 21
479.891
 31
0.0
  0
LINE
  8
0
 62
     0
 10
519.084
 20
479.891
 30
0.0
 11
519.458
 21
479.079
 31
0.0
  0
LINE
  8
0
 62
     0
 10
519.458
 20
479.079
 30
0.0
 11
519.68
 21
478.638
 31
0.0
  0
LINE
  8
0
 62
     0
 10
519.68
 20
478.638
 30
0.0
 11
519.762
 21
478.494
 31
0.0
  0
LINE
  8
0
 62
     0
 10
519.762
 20
478.494
 30
0.0
 11
520.097
 21
477.478
 31
0.0
  0
LINE
  8
0
 62
     0
 10
520.097
 20
477.478
 30
0.0
 11
521.42
 21
474.525
 31
0.0
  0
LINE
  8
0
 62
     0
 10
521.42
 20
474.525
 30
0.0
 11
523.402
 21
470.828
 31
0.0
  0
LINE
  8
0
 62
     0
 10
523.402
 20
470.828
 30
0.0
 11
525.325
 21
467.194
 31
0.0
  0
LINE
  8
0
 62
     0
 10
525.325
 20
467.194
 30
0.0
 11
526.524
 21
464.386
 31
0.0
  0
LINE
  8
0
 62
     0
 10
526.524
 20
464.386
 30
0.0
 11
526.803
 21
463.412
 31
0.0
  0
LINE
  8
0
 62
     0
 10
526.803
 20
463.412
 30
0.0
 11
526.867
 21
463.183
 31
0.0
  0
LINE
  8
0
 62
     0
 10
526.867
 20
463.183
 30
0.0
 11
527.226
 21
462.231
 31
0.0
  0
LINE
  8
0
 62
     0
 10
527.226
 20
462.231
 30
0.0
 11
527.484
 21
461.737
 31
0.0
  0
LINE
  8
0
 62
     0
 10
527.484
 20
461.737
 30
0.0
 11
527.572
 21
461.737
 31
0.0
  0
LINE
  8
0
 62
     0
 10
527.572
 20
461.737
 30
0.0
 11
527.611
 21
461.737
 31
0.0
  0
LINE
  8
0
 62
     0
 10
527.611
 20
461.737
 30
0.0
 11
527.717
 21
461.634
 31
0.0
  0
LINE
  8
0
 62
     0
 10
527.717
 20
461.634
 30
0.0
 11
527.681
 21
461.433
 31
0.0
  0
LINE
  8
0
 62
     0
 10
527.681
 20
461.433
 30
0.0
 11
527.653
 21
461.384
 31
0.0
  0
LINE
  8
0
 62
     0
 10
527.653
 20
461.384
 30
0.0
 11
527.622
 21
461.338
 31
0.0
  0
LINE
  8
0
 62
     0
 10
527.622
 20
461.338
 30
0.0
 11
527.597
 21
461.137
 31
0.0
  0
LINE
  8
0
 62
     0
 10
527.597
 20
461.137
 30
0.0
 11
527.724
 21
461.031
 31
0.0
  0
LINE
  8
0
 62
     0
 10
527.724
 20
461.031
 30
0.0
 11
527.77
 21
461.031
 31
0.0
  0
LINE
  8
0
 62
     0
 10
527.77
 20
461.031
 30
0.0
 11
527.826
 21
461.031
 31
0.0
  0
LINE
  8
0
 62
     0
 10
527.826
 20
461.031
 30
0.0
 11
527.999
 21
460.791
 31
0.0
  0
LINE
  8
0
 62
     0
 10
527.999
 20
460.791
 30
0.0
 11
528.253
 21
460.135
 31
0.0
  0
LINE
  8
0
 62
     0
 10
528.253
 20
460.135
 30
0.0
 11
528.5
 21
459.179
 31
0.0
  0
LINE
  8
0
 62
     0
 10
528.5
 20
459.179
 30
0.0
 11
528.659
 21
458.322
 31
0.0
  0
LINE
  8
0
 62
     0
 10
528.659
 20
458.322
 30
0.0
 11
528.697
 21
458.033
 31
0.0
  0
LINE
  8
0
 62
     0
 10
528.697
 20
458.033
 30
0.0
 11
528.736
 21
457.754
 31
0.0
  0
LINE
  8
0
 62
     0
 10
528.736
 20
457.754
 30
0.0
 11
528.895
 21
456.921
 31
0.0
  0
LINE
  8
0
 62
     0
 10
528.895
 20
456.921
 30
0.0
 11
529.149
 21
455.962
 31
0.0
  0
LINE
  8
0
 62
     0
 10
529.149
 20
455.962
 30
0.0
 11
529.417
 21
455.291
 31
0.0
  0
LINE
  8
0
 62
     0
 10
529.417
 20
455.291
 30
0.0
 11
529.594
 21
455.034
 31
0.0
  0
LINE
  8
0
 62
     0
 10
529.594
 20
455.034
 30
0.0
 11
529.654
 21
455.034
 31
0.0
  0
LINE
  8
0
 62
     0
 10
529.654
 20
455.034
 30
0.0
 11
529.696
 21
455.034
 31
0.0
  0
LINE
  8
0
 62
     0
 10
529.696
 20
455.034
 30
0.0
 11
529.819
 21
454.921
 31
0.0
  0
LINE
  8
0
 62
     0
 10
529.819
 20
454.921
 30
0.0
 11
529.78
 21
454.702
 31
0.0
  0
LINE
  8
0
 62
     0
 10
529.78
 20
454.702
 30
0.0
 11
529.749
 21
454.649
 31
0.0
  0
LINE
  8
0
 62
     0
 10
529.749
 20
454.649
 30
0.0
 11
529.713
 21
454.596
 31
0.0
  0
LINE
  8
0
 62
     0
 10
529.713
 20
454.596
 30
0.0
 11
529.689
 21
454.152
 31
0.0
  0
LINE
  8
0
 62
     0
 10
529.689
 20
454.152
 30
0.0
 11
529.833
 21
453.605
 31
0.0
  0
LINE
  8
0
 62
     0
 10
529.833
 20
453.605
 30
0.0
 11
529.886
 21
453.503
 31
0.0
  0
LINE
  8
0
 62
     0
 10
529.886
 20
453.503
 30
0.0
 11
529.985
 21
453.302
 31
0.0
  0
LINE
  8
0
 62
     0
 10
529.985
 20
453.302
 30
0.0
 11
530.281
 21
452.078
 31
0.0
  0
LINE
  8
0
 62
     0
 10
530.281
 20
452.078
 30
0.0
 11
530.768
 21
449.619
 31
0.0
  0
LINE
  8
0
 62
     0
 10
530.768
 20
449.619
 30
0.0
 11
531.181
 21
447.044
 31
0.0
  0
LINE
  8
0
 62
     0
 10
531.181
 20
447.044
 30
0.0
 11
531.357
 21
445.717
 31
0.0
  0
LINE
  8
0
 62
     0
 10
531.357
 20
445.717
 30
0.0
 11
531.357
 21
445.273
 31
0.0
  0
LINE
  8
0
 62
     0
 10
531.357
 20
445.273
 30
0.0
 11
531.357
 21
445.128
 31
0.0
  0
LINE
  8
0
 62
     0
 10
531.357
 20
445.128
 30
0.0
 11
531.446
 21
444.694
 31
0.0
  0
LINE
  8
0
 62
     0
 10
531.446
 20
444.694
 30
0.0
 11
531.604
 21
444.451
 31
0.0
  0
LINE
  8
0
 62
     0
 10
531.604
 20
444.451
 30
0.0
 11
531.657
 21
444.451
 31
0.0
  0
LINE
  8
0
 62
     0
 10
531.657
 20
444.451
 30
0.0
 11
531.693
 21
444.451
 31
0.0
  0
LINE
  8
0
 62
     0
 10
531.693
 20
444.451
 30
0.0
 11
531.805
 21
443.996
 31
0.0
  0
LINE
  8
0
 62
     0
 10
531.805
 20
443.996
 30
0.0
 11
531.996
 21
442.75
 31
0.0
  0
LINE
  8
0
 62
     0
 10
531.996
 20
442.75
 30
0.0
 11
532.201
 21
440.905
 31
0.0
  0
LINE
  8
0
 62
     0
 10
532.201
 20
440.905
 30
0.0
 11
532.349
 21
439.215
 31
0.0
  0
LINE
  8
0
 62
     0
 10
532.349
 20
439.215
 30
0.0
 11
532.391
 21
438.651
 31
0.0
  0
LINE
  8
0
 62
     0
 10
532.391
 20
438.651
 30
0.0
 11
532.448
 21
437.885
 31
0.0
  0
LINE
  8
0
 62
     0
 10
532.448
 20
437.885
 30
0.0
 11
532.585
 21
435.578
 31
0.0
  0
LINE
  8
0
 62
     0
 10
532.585
 20
435.578
 30
0.0
 11
532.652
 21
432.932
 31
0.0
  0
LINE
  8
0
 62
     0
 10
532.652
 20
432.932
 30
0.0
 11
532.592
 21
430.35
 31
0.0
  0
LINE
  8
0
 62
     0
 10
532.592
 20
430.35
 30
0.0
 11
532.462
 21
428.177
 31
0.0
  0
LINE
  8
0
 62
     0
 10
532.462
 20
428.177
 30
0.0
 11
532.405
 21
427.45
 31
0.0
  0
LINE
  8
0
 62
     0
 10
532.405
 20
427.45
 30
0.0
 11
532.363
 21
426.921
 31
0.0
  0
LINE
  8
0
 62
     0
 10
532.363
 20
426.921
 30
0.0
 11
532.218
 21
425.327
 31
0.0
  0
LINE
  8
0
 62
     0
 10
532.218
 20
425.327
 30
0.0
 11
532.028
 21
423.534
 31
0.0
  0
LINE
  8
0
 62
     0
 10
532.028
 20
423.534
 30
0.0
 11
531.848
 21
422.261
 31
0.0
  0
LINE
  8
0
 62
     0
 10
531.848
 20
422.261
 30
0.0
 11
531.749
 21
421.746
 31
0.0
  0
LINE
  8
0
 62
     0
 10
531.749
 20
421.746
 30
0.0
 11
531.71
 21
421.696
 31
0.0
  0
LINE
  8
0
 62
     0
 10
531.71
 20
421.696
 30
0.0
 11
531.675
 21
421.651
 31
0.0
  0
LINE
  8
0
 62
     0
 10
531.675
 20
421.651
 30
0.0
 11
531.587
 21
421.393
 31
0.0
  0
LINE
  8
0
 62
     0
 10
531.587
 20
421.393
 30
0.0
 11
531.449
 21
420.825
 31
0.0
  0
LINE
  8
0
 62
     0
 10
531.449
 20
420.825
 30
0.0
 11
531.312
 21
420.077
 31
0.0
  0
LINE
  8
0
 62
     0
 10
531.312
 20
420.077
 30
0.0
 11
531.22
 21
419.442
 31
0.0
  0
LINE
  8
0
 62
     0
 10
531.22
 20
419.442
 30
0.0
 11
531.195
 21
419.227
 31
0.0
  0
LINE
  8
0
 62
     0
 10
531.195
 20
419.227
 30
0.0
 11
531.118
 21
418.578
 31
0.0
  0
LINE
  8
0
 62
     0
 10
531.118
 20
418.578
 30
0.0
 11
530.483
 21
415.064
 31
0.0
  0
LINE
  8
0
 62
     0
 10
530.483
 20
415.064
 30
0.0
 11
529.527
 21
411.265
 31
0.0
  0
LINE
  8
0
 62
     0
 10
529.527
 20
411.265
 30
0.0
 11
529.29
 21
410.471
 31
0.0
  0
LINE
  8
0
 62
     0
 10
529.29
 20
410.471
 30
0.0
 11
529.213
 21
410.217
 31
0.0
  0
LINE
  8
0
 62
     0
 10
529.213
 20
410.217
 30
0.0
 11
528.994
 21
409.437
 31
0.0
  0
LINE
  8
0
 62
     0
 10
528.994
 20
409.437
 30
0.0
 11
528.722
 21
408.4
 31
0.0
  0
LINE
  8
0
 62
     0
 10
528.722
 20
408.4
 30
0.0
 11
528.503
 21
407.48
 31
0.0
  0
LINE
  8
0
 62
     0
 10
528.503
 20
407.48
 30
0.0
 11
528.394
 21
406.968
 31
0.0
  0
LINE
  8
0
 62
     0
 10
528.394
 20
406.968
 30
0.0
 11
528.366
 21
406.795
 31
0.0
  0
LINE
  8
0
 62
     0
 10
528.366
 20
406.795
 30
0.0
 11
528.341
 21
406.622
 31
0.0
  0
LINE
  8
0
 62
     0
 10
528.341
 20
406.622
 30
0.0
 11
528.126
 21
405.776
 31
0.0
  0
LINE
  8
0
 62
     0
 10
528.126
 20
405.776
 30
0.0
 11
527.872
 21
405.169
 31
0.0
  0
LINE
  8
0
 62
     0
 10
527.872
 20
405.169
 30
0.0
 11
527.826
 21
405.112
 31
0.0
  0
LINE
  8
0
 62
     0
 10
527.826
 20
405.112
 30
0.0
 11
527.777
 21
405.056
 31
0.0
  0
LINE
  8
0
 62
     0
 10
527.777
 20
405.056
 30
0.0
 11
527.65
 21
404.753
 31
0.0
  0
LINE
  8
0
 62
     0
 10
527.65
 20
404.753
 30
0.0
 11
527.681
 21
404.499
 31
0.0
  0
LINE
  8
0
 62
     0
 10
527.681
 20
404.499
 30
0.0
 11
527.713
 21
404.467
 31
0.0
  0
LINE
  8
0
 62
     0
 10
527.713
 20
404.467
 30
0.0
 11
527.738
 21
404.442
 31
0.0
  0
LINE
  8
0
 62
     0
 10
527.738
 20
404.442
 30
0.0
 11
527.756
 21
404.305
 31
0.0
  0
LINE
  8
0
 62
     0
 10
527.756
 20
404.305
 30
0.0
 11
527.59
 21
404.234
 31
0.0
  0
LINE
  8
0
 62
     0
 10
527.59
 20
404.234
 30
0.0
 11
527.537
 21
404.234
 31
0.0
  0
LINE
  8
0
 62
     0
 10
527.537
 20
404.234
 30
0.0
 11
527.463
 21
404.234
 31
0.0
  0
LINE
  8
0
 62
     0
 10
527.463
 20
404.234
 30
0.0
 11
527.244
 21
404.082
 31
0.0
  0
LINE
  8
0
 62
     0
 10
527.244
 20
404.082
 30
0.0
 11
527.124
 21
403.811
 31
0.0
  0
LINE
  8
0
 62
     0
 10
527.124
 20
403.811
 30
0.0
 11
527.124
 21
403.715
 31
0.0
  0
LINE
  8
0
 62
     0
 10
527.124
 20
403.715
 30
0.0
 11
527.124
 21
403.666
 31
0.0
  0
LINE
  8
0
 62
     0
 10
527.124
 20
403.666
 30
0.0
 11
527.11
 21
403.514
 31
0.0
  0
LINE
  8
0
 62
     0
 10
527.11
 20
403.514
 30
0.0
 11
527.064
 21
403.274
 31
0.0
  0
LINE
  8
0
 62
     0
 10
527.064
 20
403.274
 30
0.0
 11
526.962
 21
402.953
 31
0.0
  0
LINE
  8
0
 62
     0
 10
526.962
 20
402.953
 30
0.0
 11
526.8
 21
402.519
 31
0.0
  0
LINE
  8
0
 62
     0
 10
526.8
 20
402.519
 30
0.0
 11
526.56
 21
401.93
 31
0.0
  0
LINE
  8
0
 62
     0
 10
526.56
 20
401.93
 30
0.0
 11
526.221
 21
401.154
 31
0.0
  0
LINE
  8
0
 62
     0
 10
526.221
 20
401.154
 30
0.0
 11
525.776
 21
400.149
 31
0.0
  0
LINE
  8
0
 62
     0
 10
525.776
 20
400.149
 30
0.0
 11
525.346
 21
399.196
 31
0.0
  0
LINE
  8
0
 62
     0
 10
525.346
 20
399.196
 30
0.0
 11
525.205
 21
398.879
 31
0.0
  0
LINE
  8
0
 62
     0
 10
525.205
 20
398.879
 30
0.0
 11
525.117
 21
398.678
 31
0.0
  0
LINE
  8
0
 62
     0
 10
525.117
 20
398.678
 30
0.0
 11
524.852
 21
398.078
 31
0.0
  0
LINE
  8
0
 62
     0
 10
524.852
 20
398.078
 30
0.0
 11
524.566
 21
397.376
 31
0.0
  0
LINE
  8
0
 62
     0
 10
524.566
 20
397.376
 30
0.0
 11
524.372
 21
396.854
 31
0.0
  0
LINE
  8
0
 62
     0
 10
524.372
 20
396.854
 30
0.0
 11
524.302
 21
396.653
 31
0.0
  0
LINE
  8
0
 62
     0
 10
524.302
 20
396.653
 30
0.0
 11
524.302
 21
396.582
 31
0.0
  0
LINE
  8
0
 62
     0
 10
524.302
 20
396.582
 30
0.0
 11
524.302
 21
396.522
 31
0.0
  0
LINE
  8
0
 62
     0
 10
524.302
 20
396.522
 30
0.0
 11
524.203
 21
396.335
 31
0.0
  0
LINE
  8
0
 62
     0
 10
524.203
 20
396.335
 30
0.0
 11
523.939
 21
395.87
 31
0.0
  0
LINE
  8
0
 62
     0
 10
523.939
 20
395.87
 30
0.0
 11
523.543
 21
395.256
 31
0.0
  0
LINE
  8
0
 62
     0
 10
523.543
 20
395.256
 30
0.0
 11
523.187
 21
394.73
 31
0.0
  0
LINE
  8
0
 62
     0
 10
523.187
 20
394.73
 30
0.0
 11
523.067
 21
394.557
 31
0.0
  0
LINE
  8
0
 62
     0
 10
523.067
 20
394.557
 30
0.0
 11
522.944
 21
394.384
 31
0.0
  0
LINE
  8
0
 62
     0
 10
522.944
 20
394.384
 30
0.0
 11
522.587
 21
393.848
 31
0.0
  0
LINE
  8
0
 62
     0
 10
522.587
 20
393.848
 30
0.0
 11
522.192
 21
393.196
 31
0.0
  0
LINE
  8
0
 62
     0
 10
522.192
 20
393.196
 30
0.0
 11
521.928
 21
392.673
 31
0.0
  0
LINE
  8
0
 62
     0
 10
521.928
 20
392.673
 30
0.0
 11
521.832
 21
392.434
 31
0.0
  0
LINE
  8
0
 62
     0
 10
521.832
 20
392.434
 30
0.0
 11
521.832
 21
392.356
 31
0.0
  0
LINE
  8
0
 62
     0
 10
521.832
 20
392.356
 30
0.0
 11
521.832
 21
392.275
 31
0.0
  0
LINE
  8
0
 62
     0
 10
521.832
 20
392.275
 30
0.0
 11
521.734
 21
392.024
 31
0.0
  0
LINE
  8
0
 62
     0
 10
521.734
 20
392.024
 30
0.0
 11
521.561
 21
391.887
 31
0.0
  0
LINE
  8
0
 62
     0
 10
521.561
 20
391.887
 30
0.0
 11
521.501
 21
391.887
 31
0.0
  0
LINE
  8
0
 62
     0
 10
521.501
 20
391.887
 30
0.0
 11
521.423
 21
391.887
 31
0.0
  0
LINE
  8
0
 62
     0
 10
521.423
 20
391.887
 30
0.0
 11
521.197
 21
391.654
 31
0.0
  0
LINE
  8
0
 62
     0
 10
521.197
 20
391.654
 30
0.0
 11
520.961
 21
391.206
 31
0.0
  0
LINE
  8
0
 62
     0
 10
520.961
 20
391.206
 30
0.0
 11
520.929
 21
391.093
 31
0.0
  0
LINE
  8
0
 62
     0
 10
520.929
 20
391.093
 30
0.0
 11
520.894
 21
390.984
 31
0.0
  0
LINE
  8
0
 62
     0
 10
520.894
 20
390.984
 30
0.0
 11
520.739
 21
390.659
 31
0.0
  0
LINE
  8
0
 62
     0
 10
520.739
 20
390.659
 30
0.0
 11
520.404
 21
390.052
 31
0.0
  0
LINE
  8
0
 62
     0
 10
520.404
 20
390.052
 30
0.0
 11
519.977
 21
389.364
 31
0.0
  0
LINE
  8
0
 62
     0
 10
519.977
 20
389.364
 30
0.0
 11
519.617
 21
388.835
 31
0.0
  0
LINE
  8
0
 62
     0
 10
519.617
 20
388.835
 30
0.0
 11
519.493
 21
388.666
 31
0.0
  0
LINE
  8
0
 62
     0
 10
519.493
 20
388.666
 30
0.0
 11
519.374
 21
388.504
 31
0.0
  0
LINE
  8
0
 62
     0
 10
519.374
 20
388.504
 30
0.0
 11
519.031
 21
388.003
 31
0.0
  0
LINE
  8
0
 62
     0
 10
519.031
 20
388.003
 30
0.0
 11
518.654
 21
387.399
 31
0.0
  0
LINE
  8
0
 62
     0
 10
518.654
 20
387.399
 30
0.0
 11
518.396
 21
386.93
 31
0.0
  0
LINE
  8
0
 62
     0
 10
518.396
 20
386.93
 30
0.0
 11
518.305
 21
386.726
 31
0.0
  0
LINE
  8
0
 62
     0
 10
518.305
 20
386.726
 30
0.0
 11
518.305
 21
386.659
 31
0.0
  0
LINE
  8
0
 62
     0
 10
518.305
 20
386.659
 30
0.0
 11
518.305
 21
386.556
 31
0.0
  0
LINE
  8
0
 62
     0
 10
518.305
 20
386.556
 30
0.0
 11
518.111
 21
386.26
 31
0.0
  0
LINE
  8
0
 62
     0
 10
518.111
 20
386.26
 30
0.0
 11
517.74
 21
385.886
 31
0.0
  0
LINE
  8
0
 62
     0
 10
517.74
 20
385.886
 30
0.0
 11
517.652
 21
385.822
 31
0.0
  0
LINE
  8
0
 62
     0
 10
517.652
 20
385.822
 30
0.0
 11
517.56
 21
385.759
 31
0.0
  0
LINE
  8
0
 62
     0
 10
517.56
 20
385.759
 30
0.0
 11
517.024
 21
385.187
 31
0.0
  0
LINE
  8
0
 62
     0
 10
517.024
 20
385.187
 30
0.0
 11
516.516
 21
384.45
 31
0.0
  0
LINE
  8
0
 62
     0
 10
516.516
 20
384.45
 30
0.0
 11
516.438
 21
384.302
 31
0.0
  0
LINE
  8
0
 62
     0
 10
516.438
 20
384.302
 30
0.0
 11
516.361
 21
384.157
 31
0.0
  0
LINE
  8
0
 62
     0
 10
516.361
 20
384.157
 30
0.0
 11
516.054
 21
383.709
 31
0.0
  0
LINE
  8
0
 62
     0
 10
516.054
 20
383.709
 30
0.0
 11
515.415
 21
382.866
 31
0.0
  0
LINE
  8
0
 62
     0
 10
515.415
 20
382.866
 30
0.0
 11
514.615
 21
381.889
 31
0.0
  0
LINE
  8
0
 62
     0
 10
514.615
 20
381.889
 30
0.0
 11
513.962
 21
381.138
 31
0.0
  0
LINE
  8
0
 62
     0
 10
513.962
 20
381.138
 30
0.0
 11
513.74
 21
380.894
 31
0.0
  0
LINE
  8
0
 62
     0
 10
513.74
 20
380.894
 30
0.0
 11
513.532
 21
380.661
 31
0.0
  0
LINE
  8
0
 62
     0
 10
513.532
 20
380.661
 30
0.0
 11
512.907
 21
379.959
 31
0.0
  0
LINE
  8
0
 62
     0
 10
512.907
 20
379.959
 30
0.0
 11
512.223
 21
379.148
 31
0.0
  0
LINE
  8
0
 62
     0
 10
512.223
 20
379.148
 30
0.0
 11
511.754
 21
378.548
 31
0.0
  0
LINE
  8
0
 62
     0
 10
511.754
 20
378.548
 30
0.0
 11
511.581
 21
378.291
 31
0.0
  0
LINE
  8
0
 62
     0
 10
511.581
 20
378.291
 30
0.0
 11
511.577
 21
378.248
 31
0.0
  0
LINE
  8
0
 62
     0
 10
511.577
 20
378.248
 30
0.0
 11
511.574
 21
378.21
 31
0.0
  0
LINE
  8
0
 62
     0
 10
511.574
 20
378.21
 30
0.0
 11
511.454
 21
378.033
 31
0.0
  0
LINE
  8
0
 62
     0
 10
511.454
 20
378.033
 30
0.0
 11
511.129
 21
377.656
 31
0.0
  0
LINE
  8
0
 62
     0
 10
511.129
 20
377.656
 30
0.0
 11
510.653
 21
377.179
 31
0.0
  0
LINE
  8
0
 62
     0
 10
510.653
 20
377.179
 30
0.0
 11
510.226
 21
376.777
 31
0.0
  0
LINE
  8
0
 62
     0
 10
510.226
 20
376.777
 30
0.0
 11
510.078
 21
376.647
 31
0.0
  0
LINE
  8
0
 62
     0
 10
510.078
 20
376.647
 30
0.0
 11
509.88
 21
376.474
 31
0.0
  0
LINE
  8
0
 62
     0
 10
509.88
 20
376.474
 30
0.0
 11
509.288
 21
375.948
 31
0.0
  0
LINE
  8
0
 62
     0
 10
509.288
 20
375.948
 30
0.0
 11
508.226
 21
374.996
 31
0.0
  0
LINE
  8
0
 62
     0
 10
508.226
 20
374.996
 30
0.0
 11
507.033
 21
373.927
 31
0.0
  0
LINE
  8
0
 62
     0
 10
507.033
 20
373.927
 30
0.0
 11
506.141
 21
373.122
 31
0.0
  0
LINE
  8
0
 62
     0
 10
506.141
 20
373.122
 30
0.0
 11
505.848
 21
372.854
 31
0.0
  0
LINE
  8
0
 62
     0
 10
505.848
 20
372.854
 30
0.0
 11
505.576
 21
372.611
 31
0.0
  0
LINE
  8
0
 62
     0
 10
505.576
 20
372.611
 30
0.0
 11
504.747
 21
371.891
 31
0.0
  0
LINE
  8
0
 62
     0
 10
504.747
 20
371.891
 30
0.0
 11
503.791
 21
371.101
 31
0.0
  0
LINE
  8
0
 62
     0
 10
503.791
 20
371.101
 30
0.0
 11
503.082
 21
370.565
 31
0.0
  0
LINE
  8
0
 62
     0
 10
503.082
 20
370.565
 30
0.0
 11
502.814
 21
370.367
 31
0.0
  0
LINE
  8
0
 62
     0
 10
502.814
 20
370.367
 30
0.0
 11
502.722
 21
370.367
 31
0.0
  0
LINE
  8
0
 62
     0
 10
502.722
 20
370.367
 30
0.0
 11
502.606
 21
370.367
 31
0.0
  0
LINE
  8
0
 62
     0
 10
502.606
 20
370.367
 30
0.0
 11
502.257
 21
370.11
 31
0.0
  0
LINE
  8
0
 62
     0
 10
502.257
 20
370.11
 30
0.0
 11
501.756
 21
369.609
 31
0.0
  0
LINE
  8
0
 62
     0
 10
501.756
 20
369.609
 30
0.0
 11
501.661
 21
369.485
 31
0.0
  0
LINE
  8
0
 62
     0
 10
501.661
 20
369.485
 30
0.0
 11
501.565
 21
369.365
 31
0.0
  0
LINE
  8
0
 62
     0
 10
501.565
 20
369.365
 30
0.0
 11
501.022
 21
368.864
 31
0.0
  0
LINE
  8
0
 62
     0
 10
501.022
 20
368.864
 30
0.0
 11
500.606
 21
368.603
 31
0.0
  0
LINE
  8
0
 62
     0
 10
500.606
 20
368.603
 30
0.0
 11
500.465
 21
368.603
 31
0.0
  0
LINE
  8
0
 62
     0
 10
500.465
 20
368.603
 30
0.0
 11
500.345
 21
368.603
 31
0.0
  0
LINE
  8
0
 62
     0
 10
500.345
 20
368.603
 30
0.0
 11
499.981
 21
368.399
 31
0.0
  0
LINE
  8
0
 62
     0
 10
499.981
 20
368.399
 30
0.0
 11
499.586
 21
367.997
 31
0.0
  0
LINE
  8
0
 62
     0
 10
499.586
 20
367.997
 30
0.0
 11
499.526
 21
367.898
 31
0.0
  0
LINE
  8
0
 62
     0
 10
499.526
 20
367.898
 30
0.0
 11
499.463
 21
367.803
 31
0.0
  0
LINE
  8
0
 62
     0
 10
499.463
 20
367.803
 30
0.0
 11
499.092
 21
367.4
 31
0.0
  0
LINE
  8
0
 62
     0
 10
499.092
 20
367.4
 30
0.0
 11
498.778
 21
367.192
 31
0.0
  0
LINE
  8
0
 62
     0
 10
498.778
 20
367.192
 30
0.0
 11
498.676
 21
367.192
 31
0.0
  0
LINE
  8
0
 62
     0
 10
498.676
 20
367.192
 30
0.0
 11
498.598
 21
367.192
 31
0.0
  0
LINE
  8
0
 62
     0
 10
498.598
 20
367.192
 30
0.0
 11
498.369
 21
367.083
 31
0.0
  0
LINE
  8
0
 62
     0
 10
498.369
 20
367.083
 30
0.0
 11
497.833
 21
366.78
 31
0.0
  0
LINE
  8
0
 62
     0
 10
497.833
 20
366.78
 30
0.0
 11
497.149
 21
366.332
 31
0.0
  0
LINE
  8
0
 62
     0
 10
497.149
 20
366.332
 30
0.0
 11
496.577
 21
365.922
 31
0.0
  0
LINE
  8
0
 62
     0
 10
496.577
 20
365.922
 30
0.0
 11
496.39
 21
365.781
 31
0.0
  0
LINE
  8
0
 62
     0
 10
496.39
 20
365.781
 30
0.0
 11
496.2
 21
365.64
 31
0.0
  0
LINE
  8
0
 62
     0
 10
496.2
 20
365.64
 30
0.0
 11
495.625
 21
365.234
 31
0.0
  0
LINE
  8
0
 62
     0
 10
495.625
 20
365.234
 30
0.0
 11
494.937
 21
364.786
 31
0.0
  0
LINE
  8
0
 62
     0
 10
494.937
 20
364.786
 30
0.0
 11
494.397
 21
364.483
 31
0.0
  0
LINE
  8
0
 62
     0
 10
494.397
 20
364.483
 30
0.0
 11
494.161
 21
364.37
 31
0.0
  0
LINE
  8
0
 62
     0
 10
494.161
 20
364.37
 30
0.0
 11
494.083
 21
364.37
 31
0.0
  0
LINE
  8
0
 62
     0
 10
494.083
 20
364.37
 30
0.0
 11
493.97
 21
364.37
 31
0.0
  0
LINE
  8
0
 62
     0
 10
493.97
 20
364.37
 30
0.0
 11
493.621
 21
364.208
 31
0.0
  0
LINE
  8
0
 62
     0
 10
493.621
 20
364.208
 30
0.0
 11
493.183
 21
363.894
 31
0.0
  0
LINE
  8
0
 62
     0
 10
493.183
 20
363.894
 30
0.0
 11
493.106
 21
363.816
 31
0.0
  0
LINE
  8
0
 62
     0
 10
493.106
 20
363.816
 30
0.0
 11
493.028
 21
363.742
 31
0.0
  0
LINE
  8
0
 62
     0
 10
493.028
 20
363.742
 30
0.0
 11
492.714
 21
363.499
 31
0.0
  0
LINE
  8
0
 62
     0
 10
492.714
 20
363.499
 30
0.0
 11
492.552
 21
363.506
 31
0.0
  0
LINE
  8
0
 62
     0
 10
492.552
 20
363.506
 30
0.0
 11
492.552
 21
363.506
 31
0.0
  0
LINE
  8
0
 62
     0
 10
492.552
 20
363.506
 30
0.0
 11
492.552
 21
363.523
 31
0.0
  0
LINE
  8
0
 62
     0
 10
492.552
 20
363.523
 30
0.0
 11
492.418
 21
363.569
 31
0.0
  0
LINE
  8
0
 62
     0
 10
492.418
 20
363.569
 30
0.0
 11
492.164
 21
363.432
 31
0.0
  0
LINE
  8
0
 62
     0
 10
492.164
 20
363.432
 30
0.0
 11
492.1
 21
363.379
 31
0.0
  0
LINE
  8
0
 62
     0
 10
492.1
 20
363.379
 30
0.0
 11
492.04
 21
363.329
 31
0.0
  0
LINE
  8
0
 62
     0
 10
492.04
 20
363.329
 30
0.0
 11
491.79
 21
363.188
 31
0.0
  0
LINE
  8
0
 62
     0
 10
491.79
 20
363.188
 30
0.0
 11
491.275
 21
362.945
 31
0.0
  0
LINE
  8
0
 62
     0
 10
491.275
 20
362.945
 30
0.0
 11
490.629
 21
362.677
 31
0.0
  0
LINE
  8
0
 62
     0
 10
490.629
 20
362.677
 30
0.0
 11
490.1
 21
362.479
 31
0.0
  0
LINE
  8
0
 62
     0
 10
490.1
 20
362.479
 30
0.0
 11
489.924
 21
362.419
 31
0.0
  0
LINE
  8
0
 62
     0
 10
489.924
 20
362.419
 30
0.0
 11
489.684
 21
362.338
 31
0.0
  0
LINE
  8
0
 62
     0
 10
489.684
 20
362.338
 30
0.0
 11
488.435
 21
361.819
 31
0.0
  0
LINE
  8
0
 62
     0
 10
488.435
 20
361.819
 30
0.0
 11
487.412
 21
361.29
 31
0.0
  0
LINE
  8
0
 62
     0
 10
487.412
 20
361.29
 30
0.0
 11
487.288
 21
361.202
 31
0.0
  0
LINE
  8
0
 62
     0
 10
487.288
 20
361.202
 30
0.0
 11
487.168
 21
361.121
 31
0.0
  0
LINE
  8
0
 62
     0
 10
487.168
 20
361.121
 30
0.0
 11
486.795
 21
360.923
 31
0.0
  0
LINE
  8
0
 62
     0
 10
486.795
 20
360.923
 30
0.0
 11
486.124
 21
360.624
 31
0.0
  0
LINE
  8
0
 62
     0
 10
486.124
 20
360.624
 30
0.0
 11
485.369
 21
360.345
 31
0.0
  0
LINE
  8
0
 62
     0
 10
485.369
 20
360.345
 30
0.0
 11
484.805
 21
360.165
 31
0.0
  0
LINE
  8
0
 62
     0
 10
484.805
 20
360.165
 30
0.0
 11
484.614
 21
360.116
 31
0.0
  0
LINE
  8
0
 62
     0
 10
484.614
 20
360.116
 30
0.0
 11
484.438
 21
360.073
 31
0.0
  0
LINE
  8
0
 62
     0
 10
484.438
 20
360.073
 30
0.0
 11
483.912
 21
359.922
 31
0.0
  0
LINE
  8
0
 62
     0
 10
483.912
 20
359.922
 30
0.0
 11
483.316
 21
359.728
 31
0.0
  0
LINE
  8
0
 62
     0
 10
483.316
 20
359.728
 30
0.0
 11
482.879
 21
359.555
 31
0.0
  0
LINE
  8
0
 62
     0
 10
482.879
 20
359.555
 30
0.0
 11
482.695
 21
359.459
 31
0.0
  0
LINE
  8
0
 62
     0
 10
482.695
 20
359.459
 30
0.0
 11
482.674
 21
359.428
 31
0.0
  0
LINE
  8
0
 62
     0
 10
482.674
 20
359.428
 30
0.0
 11
482.618
 21
359.354
 31
0.0
  0
LINE
  8
0
 62
     0
 10
482.618
 20
359.354
 30
0.0
 11
481.566
 21
359.033
 31
0.0
  0
LINE
  8
0
 62
     0
 10
481.566
 20
359.033
 30
0.0
 11
479.273
 21
358.44
 31
0.0
  0
LINE
  8
0
 62
     0
 10
479.273
 20
358.44
 30
0.0
 11
476.832
 21
357.904
 31
0.0
  0
LINE
  8
0
 62
     0
 10
476.832
 20
357.904
 30
0.0
 11
475.675
 21
357.667
 31
0.0
  0
LINE
  8
0
 62
     0
 10
475.675
 20
357.667
 30
0.0
 11
475.287
 21
357.667
 31
0.0
  0
LINE
  8
0
 62
     0
 10
475.287
 20
357.667
 30
0.0
 11
475.16
 21
357.667
 31
0.0
  0
LINE
  8
0
 62
     0
 10
475.16
 20
357.667
 30
0.0
 11
474.772
 21
357.579
 31
0.0
  0
LINE
  8
0
 62
     0
 10
474.772
 20
357.579
 30
0.0
 11
474.56
 21
357.417
 31
0.0
  0
LINE
  8
0
 62
     0
 10
474.56
 20
357.417
 30
0.0
 11
474.56
 21
357.36
 31
0.0
  0
LINE
  8
0
 62
     0
 10
474.56
 20
357.36
 30
0.0
 11
474.56
 21
357.307
 31
0.0
  0
LINE
  8
0
 62
     0
 10
474.56
 20
357.307
 30
0.0
 11
474.179
 21
357.145
 31
0.0
  0
LINE
  8
0
 62
     0
 10
474.179
 20
357.145
 30
0.0
 11
473.107
 21
356.902
 31
0.0
  0
LINE
  8
0
 62
     0
 10
473.107
 20
356.902
 30
0.0
 11
471.438
 21
356.651
 31
0.0
  0
LINE
  8
0
 62
     0
 10
471.438
 20
356.651
 30
0.0
 11
469.812
 21
356.464
 31
0.0
  0
LINE
  8
0
 62
     0
 10
469.812
 20
356.464
 30
0.0
 11
469.269
 21
356.411
 31
0.0
  0
LINE
  8
0
 62
     0
 10
469.269
 20
356.411
 30
0.0
 11
469.145
 21
356.401
 31
0.0
  0
LINE
  8
0
 62
     0
 10
469.145
 20
356.401
 30
0.0
 11
468.69
 21
356.348
 31
0.0
  0
LINE
  8
0
 62
     0
 10
468.69
 20
356.348
 30
0.0
 11
467.766
 21
356.235
 31
0.0
  0
LINE
  8
0
 62
     0
 10
467.766
 20
356.235
 30
0.0
 11
466.626
 21
356.097
 31
0.0
  0
LINE
  8
0
 62
     0
 10
466.626
 20
356.097
 30
0.0
 11
465.702
 21
355.977
 31
0.0
  0
LINE
  8
0
 62
     0
 10
465.702
 20
355.977
 30
0.0
 11
465.395
 21
355.939
 31
0.0
  0
LINE
  8
0
 62
     0
 10
465.395
 20
355.939
 30
0.0
 11
464.573
 21
355.833
 31
0.0
  0
LINE
  8
0
 62
     0
 10
464.573
 20
355.833
 30
0.0
 11
461.031
 21
355.614
 31
0.0
  0
LINE
  8
0
 62
     0
 10
461.031
 20
355.614
 30
0.0
 11
457.542
 21
355.822
 31
0.0
  0
LINE
  8
0
 62
     0
 10
457.542
 20
355.822
 30
0.0
 11
456.745
 21
355.925
 31
0.0
  0
LINE
  8
0
 62
     0
 10
456.745
 20
355.925
 30
0.0
 11
456.452
 21
355.963
 31
0.0
  0
LINE
  8
0
 62
     0
 10
456.452
 20
355.963
 30
0.0
 11
454.822
 21
356.171
 31
0.0
  0
LINE
  8
0
 62
     0
 10
454.822
 20
356.171
 30
0.0
 11
453.372
 21
356.351
 31
0.0
  0
LINE
  8
0
 62
     0
 10
453.372
 20
356.351
 30
0.0
 11
453.175
 21
356.376
 31
0.0
  0
LINE
  8
0
 62
     0
 10
453.175
 20
356.376
 30
0.0
 11
452.579
 21
356.45
 31
0.0
  0
LINE
  8
0
 62
     0
 10
452.579
 20
356.45
 30
0.0
 11
450.794
 21
356.676
 31
0.0
  0
LINE
  8
0
 62
     0
 10
450.794
 20
356.676
 30
0.0
 11
449.199
 21
356.916
 31
0.0
  0
LINE
  8
0
 62
     0
 10
449.199
 20
356.916
 30
0.0
 11
448.19
 21
357.117
 31
0.0
  0
LINE
  8
0
 62
     0
 10
448.19
 20
357.117
 30
0.0
 11
447.721
 21
357.258
 31
0.0
  0
LINE
  8
0
 62
     0
 10
447.721
 20
357.258
 30
0.0
 11
447.573
 21
357.325
 31
0.0
  0
LINE
  8
0
 62
     0
 10
447.573
 20
357.325
 30
0.0
 11
447.474
 21
357.367
 31
0.0
  0
LINE
  8
0
 62
     0
 10
447.474
 20
357.367
 30
0.0
 11
447.019
 21
357.505
 31
0.0
  0
LINE
  8
0
 62
     0
 10
447.019
 20
357.505
 30
0.0
 11
446.042
 21
357.763
 31
0.0
  0
LINE
  8
0
 62
     0
 10
446.042
 20
357.763
 30
0.0
 11
444.772
 21
358.066
 31
0.0
  0
LINE
  8
0
 62
     0
 10
444.772
 20
358.066
 30
0.0
 11
443.703
 21
358.302
 31
0.0
  0
LINE
  8
0
 62
     0
 10
443.703
 20
358.302
 30
0.0
 11
443.346
 21
358.376
 31
0.0
  0
LINE
  8
0
 62
     0
 10
443.346
 20
358.376
 30
0.0
 11
443.001
 21
358.45
 31
0.0
  0
LINE
  8
0
 62
     0
 10
443.001
 20
358.45
 30
0.0
 11
441.967
 21
358.687
 31
0.0
  0
LINE
  8
0
 62
     0
 10
441.967
 20
358.687
 30
0.0
 11
440.81
 21
358.976
 31
0.0
  0
LINE
  8
0
 62
     0
 10
440.81
 20
358.976
 30
0.0
 11
439.995
 21
359.216
 31
0.0
  0
LINE
  8
0
 62
     0
 10
439.995
 20
359.216
 30
0.0
 11
439.667
 21
359.339
 31
0.0
  0
LINE
  8
0
 62
     0
 10
439.667
 20
359.339
 30
0.0
 11
439.642
 21
359.375
 31
0.0
  0
LINE
  8
0
 62
     0
 10
439.642
 20
359.375
 30
0.0
 11
439.515
 21
359.555
 31
0.0
  0
LINE
  8
0
 62
     0
 10
439.515
 20
359.555
 30
0.0
 11
438.841
 21
359.883
 31
0.0
  0
LINE
  8
0
 62
     0
 10
438.841
 20
359.883
 30
0.0
 11
437.296
 21
360.165
 31
0.0
  0
LINE
  8
0
 62
     0
 10
437.296
 20
360.165
 30
0.0
 11
434.954
 21
360.225
 31
0.0
  0
LINE
  8
0
 62
     0
 10
434.954
 20
360.225
 30
0.0
 11
432.566
 21
360.13
 31
0.0
  0
LINE
  8
0
 62
     0
 10
432.566
 20
360.13
 30
0.0
 11
431.772
 21
360.07
 31
0.0
  0
LINE
  8
0
 62
     0
 10
431.772
 20
360.07
 30
0.0
 11
431.281
 21
360.034
 31
0.0
  0
LINE
  8
0
 62
     0
 10
431.281
 20
360.034
 30
0.0
 11
429.81
 21
359.907
 31
0.0
  0
LINE
  8
0
 62
     0
 10
429.81
 20
359.907
 30
0.0
 11
428.177
 21
359.738
 31
0.0
  0
LINE
  8
0
 62
     0
 10
428.177
 20
359.738
 30
0.0
 11
427.045
 21
359.576
 31
0.0
  0
LINE
  8
0
 62
     0
 10
427.045
 20
359.576
 30
0.0
 11
426.607
 21
359.481
 31
0.0
  0
LINE
  8
0
 62
     0
 10
426.607
 20
359.481
 30
0.0
 11
426.582
 21
359.445
 31
0.0
  0
LINE
  8
0
 62
     0
 10
426.582
 20
359.445
 30
0.0
 11
426.558
 21
359.41
 31
0.0
  0
LINE
  8
0
 62
     0
 10
426.558
 20
359.41
 30
0.0
 11
425.912
 21
359.191
 31
0.0
  0
LINE
  8
0
 62
     0
 10
425.912
 20
359.191
 30
0.0
 11
424.804
 21
358.976
 31
0.0
  0
LINE
  8
0
 62
     0
 10
424.804
 20
358.976
 30
0.0
 11
424.55
 21
358.941
 31
0.0
  0
LINE
  8
0
 62
     0
 10
424.55
 20
358.941
 30
0.0
 11
424.473
 21
358.934
 31
0.0
  0
LINE
  8
0
 62
     0
 10
424.473
 20
358.934
 30
0.0
 11
424.251
 21
358.902
 31
0.0
  0
LINE
  8
0
 62
     0
 10
424.251
 20
358.902
 30
0.0
 11
424.081
 21
358.881
 31
0.0
  0
LINE
  8
0
 62
     0
 10
424.081
 20
358.881
 30
0.0
 11
423.979
 21
358.863
 31
0.0
  0
LINE
  8
0
 62
     0
 10
423.979
 20
358.863
 30
0.0
 11
423.877
 21
358.842
 31
0.0
  0
LINE
  8
0
 62
     0
 10
423.877
 20
358.842
 30
0.0
 11
423.718
 21
358.807
 31
0.0
  0
LINE
  8
0
 62
     0
 10
423.718
 20
358.807
 30
0.0
 11
423.436
 21
358.75
 31
0.0
  0
LINE
  8
0
 62
     0
 10
423.436
 20
358.75
 30
0.0
 11
422.966
 21
358.662
 31
0.0
  0
LINE
  8
0
 62
     0
 10
422.966
 20
358.662
 30
0.0
 11
422.43
 21
358.563
 31
0.0
  0
LINE
  8
0
 62
     0
 10
422.43
 20
358.563
 30
0.0
 11
422.254
 21
358.532
 31
0.0
  0
LINE
  8
0
 62
     0
 10
422.254
 20
358.532
 30
0.0
 11
421.873
 21
360.094
 31
0.0
  0
LINE
  8
0
 62
     0
 10
421.873
 20
360.094
 30
0.0
 11
420.444
 21
364.712
 31
0.0
  0
LINE
  8
0
 62
     0
 10
420.444
 20
364.712
 30
0.0
 11
418.155
 21
370.664
 31
0.0
  0
LINE
  8
0
 62
     0
 10
418.155
 20
370.664
 30
0.0
 11
415.48
 21
376.368
 31
0.0
  0
LINE
  8
0
 62
     0
 10
415.48
 20
376.368
 30
0.0
 11
412.524
 21
381.811
 31
0.0
  0
LINE
  8
0
 62
     0
 10
412.524
 20
381.811
 30
0.0
 11
409.384
 21
386.98
 31
0.0
  0
LINE
  8
0
 62
     0
 10
409.384
 20
386.98
 30
0.0
 11
406.153
 21
391.851
 31
0.0
  0
LINE
  8
0
 62
     0
 10
406.153
 20
391.851
 30
0.0
 11
402.939
 21
396.409
 31
0.0
  0
LINE
  8
0
 62
     0
 10
402.939
 20
396.409
 30
0.0
 11
400.614
 21
399.588
 31
0.0
  0
LINE
  8
0
 62
     0
 10
400.614
 20
399.588
 30
0.0
 11
399.835
 21
400.643
 31
0.0
  0
LINE
  8
0
 62
     0
 10
399.835
 20
400.643
 30
0.0
 11
400.258
 21
401.906
 31
0.0
  0
LINE
  8
0
 62
     0
 10
400.258
 20
401.906
 30
0.0
 11
401.962
 21
405.55
 31
0.0
  0
LINE
  8
0
 62
     0
 10
401.962
 20
405.55
 30
0.0
 11
404.551
 21
409.924
 31
0.0
  0
LINE
  8
0
 62
     0
 10
404.551
 20
409.924
 30
0.0
 11
407.264
 21
414.228
 31
0.0
  0
LINE
  8
0
 62
     0
 10
407.264
 20
414.228
 30
0.0
 11
409.222
 21
417.717
 31
0.0
  0
LINE
  8
0
 62
     0
 10
409.222
 20
417.717
 30
0.0
 11
409.773
 21
418.924
 31
0.0
  0
LINE
  8
0
 62
     0
 10
409.773
 20
418.924
 30
0.0
 11
410.143
 21
417.47
 31
0.0
  0
LINE
  8
0
 62
     0
 10
410.143
 20
417.47
 30
0.0
 11
411.462
 21
413.149
 31
0.0
  0
LINE
  8
0
 62
     0
 10
411.462
 20
413.149
 30
0.0
 11
413.491
 21
407.758
 31
0.0
  0
LINE
  8
0
 62
     0
 10
413.491
 20
407.758
 30
0.0
 11
415.844
 21
402.752
 31
0.0
  0
LINE
  8
0
 62
     0
 10
415.844
 20
402.752
 30
0.0
 11
418.5
 21
398.131
 31
0.0
  0
LINE
  8
0
 62
     0
 10
418.5
 20
398.131
 30
0.0
 11
421.442
 21
393.891
 31
0.0
  0
LINE
  8
0
 62
     0
 10
421.442
 20
393.891
 30
0.0
 11
424.653
 21
390.031
 31
0.0
  0
LINE
  8
0
 62
     0
 10
424.653
 20
390.031
 30
0.0
 11
428.117
 21
386.553
 31
0.0
  0
LINE
  8
0
 62
     0
 10
428.117
 20
386.553
 30
0.0
 11
431.814
 21
383.452
 31
0.0
  0
LINE
  8
0
 62
     0
 10
431.814
 20
383.452
 30
0.0
 11
435.726
 21
380.732
 31
0.0
  0
LINE
  8
0
 62
     0
 10
435.726
 20
380.732
 30
0.0
 11
439.836
 21
378.386
 31
0.0
  0
LINE
  8
0
 62
     0
 10
439.836
 20
378.386
 30
0.0
 11
444.13
 21
376.417
 31
0.0
  0
LINE
  8
0
 62
     0
 10
444.13
 20
376.417
 30
0.0
 11
448.582
 21
374.826
 31
0.0
  0
LINE
  8
0
 62
     0
 10
448.582
 20
374.826
 30
0.0
 11
453.185
 21
373.606
 31
0.0
  0
LINE
  8
0
 62
     0
 10
453.185
 20
373.606
 30
0.0
 11
457.913
 21
372.759
 31
0.0
  0
LINE
  8
0
 62
     0
 10
457.913
 20
372.759
 30
0.0
 11
462.749
 21
372.286
 31
0.0
  0
LINE
  8
0
 62
     0
 10
462.749
 20
372.286
 30
0.0
 11
466.45
 21
372.163
 31
0.0
  0
LINE
  8
0
 62
     0
 10
466.45
 20
372.163
 30
0.0
 11
467.681
 21
372.181
 31
0.0
  0
LINE
  8
0
 62
     0
 10
467.681
 20
372.181
 30
0.0
 11
468.916
 21
372.202
 31
0.0
  0
LINE
  8
0
 62
     0
 10
468.916
 20
372.202
 30
0.0
 11
472.616
 21
372.491
 31
0.0
  0
LINE
  8
0
 62
     0
 10
472.616
 20
372.491
 30
0.0
 11
477.453
 21
373.253
 31
0.0
  0
LINE
  8
0
 62
     0
 10
477.453
 20
373.253
 30
0.0
 11
482.166
 21
374.459
 31
0.0
  0
LINE
  8
0
 62
     0
 10
482.166
 20
374.459
 30
0.0
 11
486.72
 21
376.114
 31
0.0
  0
LINE
  8
0
 62
     0
 10
486.72
 20
376.114
 30
0.0
 11
491.091
 21
378.21
 31
0.0
  0
LINE
  8
0
 62
     0
 10
491.091
 20
378.21
 30
0.0
 11
495.247
 21
380.746
 31
0.0
  0
LINE
  8
0
 62
     0
 10
495.247
 20
380.746
 30
0.0
 11
499.159
 21
383.72
 31
0.0
  0
LINE
  8
0
 62
     0
 10
499.159
 20
383.72
 30
0.0
 11
502.797
 21
387.128
 31
0.0
  0
LINE
  8
0
 62
     0
 10
502.797
 20
387.128
 30
0.0
 11
506.13
 21
390.966
 31
0.0
  0
LINE
  8
0
 62
     0
 10
506.13
 20
390.966
 30
0.0
 11
509.132
 21
395.231
 31
0.0
  0
LINE
  8
0
 62
     0
 10
509.132
 20
395.231
 30
0.0
 11
511.768
 21
399.923
 31
0.0
  0
LINE
  8
0
 62
     0
 10
511.768
 20
399.923
 30
0.0
 11
514.011
 21
405.038
 31
0.0
  0
LINE
  8
0
 62
     0
 10
514.011
 20
405.038
 30
0.0
 11
515.832
 21
410.573
 31
0.0
  0
LINE
  8
0
 62
     0
 10
515.832
 20
410.573
 30
0.0
 11
517.2
 21
416.525
 31
0.0
  0
LINE
  8
0
 62
     0
 10
517.2
 20
416.525
 30
0.0
 11
518.086
 21
422.889
 31
0.0
  0
LINE
  8
0
 62
     0
 10
518.086
 20
422.889
 30
0.0
 11
518.435
 21
427.969
 31
0.0
  0
LINE
  8
0
 62
     0
 10
518.435
 20
427.969
 30
0.0
 11
518.46
 21
429.666
 31
0.0
  0
LINE
  8
0
 62
     0
 10
518.46
 20
429.666
 30
0.0
 11
518.485
 21
431.352
 31
0.0
  0
LINE
  8
0
 62
     0
 10
518.485
 20
431.352
 30
0.0
 11
518.181
 21
436.425
 31
0.0
  0
LINE
  8
0
 62
     0
 10
518.181
 20
436.425
 30
0.0
 11
517.186
 21
442.736
 31
0.0
  0
LINE
  8
0
 62
     0
 10
517.186
 20
442.736
 30
0.0
 11
515.549
 21
448.606
 31
0.0
  0
LINE
  8
0
 62
     0
 10
515.549
 20
448.606
 30
0.0
 11
513.355
 21
454.032
 31
0.0
  0
LINE
  8
0
 62
     0
 10
513.355
 20
454.032
 30
0.0
 11
510.678
 21
459.017
 31
0.0
  0
LINE
  8
0
 62
     0
 10
510.678
 20
459.017
 30
0.0
 11
507.598
 21
463.564
 31
0.0
  0
LINE
  8
0
 62
     0
 10
507.598
 20
463.564
 30
0.0
 11
504.197
 21
467.67
 31
0.0
  0
LINE
  8
0
 62
     0
 10
504.197
 20
467.67
 30
0.0
 11
500.556
 21
471.343
 31
0.0
  0
LINE
  8
0
 62
     0
 10
500.556
 20
471.343
 30
0.0
 11
496.75
 21
474.578
 31
0.0
  0
LINE
  8
0
 62
     0
 10
496.75
 20
474.578
 30
0.0
 11
492.855
 21
477.379
 31
0.0
  0
LINE
  8
0
 62
     0
 10
492.855
 20
477.379
 30
0.0
 11
488.961
 21
479.75
 31
0.0
  0
LINE
  8
0
 62
     0
 10
488.961
 20
479.75
 30
0.0
 11
485.14
 21
481.69
 31
0.0
  0
LINE
  8
0
 62
     0
 10
485.14
 20
481.69
 30
0.0
 11
481.471
 21
483.2
 31
0.0
  0
LINE
  8
0
 62
     0
 10
481.471
 20
483.2
 30
0.0
 11
478.035
 21
484.279
 31
0.0
  0
LINE
  8
0
 62
     0
 10
478.035
 20
484.279
 30
0.0
 11
474.913
 21
484.935
 31
0.0
  0
LINE
  8
0
 62
     0
 10
474.913
 20
484.935
 30
0.0
 11
472.867
 21
485.161
 31
0.0
  0
LINE
  8
0
 62
     0
 10
472.867
 20
485.161
 30
0.0
 11
472.182
 21
485.165
 31
0.0
  0
LINE
  8
0
 62
     0
 10
472.182
 20
485.165
 30
0.0
 11
472.447
 21
485.588
 31
0.0
  0
LINE
  8
0
 62
     0
 10
472.447
 20
485.588
 30
0.0
 11
473.276
 21
486.84
 31
0.0
  0
LINE
  8
0
 62
     0
 10
473.276
 20
486.84
 30
0.0
 11
474.105
 21
487.93
 31
0.0
  0
LINE
  8
0
 62
     0
 10
474.105
 20
487.93
 30
0.0
 11
474.853
 21
488.689
 31
0.0
  0
LINE
  8
0
 62
     0
 10
474.853
 20
488.689
 30
0.0
 11
475.495
 21
489.208
 31
0.0
  0
LINE
  8
0
 62
     0
 10
475.495
 20
489.208
 30
0.0
 11
475.714
 21
489.37
 31
0.0
  0
LINE
  8
0
 62
     0
 10
475.714
 20
489.37
 30
0.0
 11
475.774
 21
489.426
 31
0.0
  0
LINE
  8
0
 62
     0
 10
475.774
 20
489.426
 30
0.0
 11
476.063
 21
489.67
 31
0.0
  0
LINE
  8
0
 62
     0
 10
476.063
 20
489.67
 30
0.0
 11
476.698
 21
490.174
 31
0.0
  0
LINE
  8
0
 62
     0
 10
476.698
 20
490.174
 30
0.0
 11
477.52
 21
490.82
 31
0.0
  0
LINE
  8
0
 62
     0
 10
477.52
 20
490.82
 30
0.0
 11
478.211
 21
491.356
 31
0.0
  0
LINE
  8
0
 62
     0
 10
478.211
 20
491.356
 30
0.0
 11
478.441
 21
491.532
 31
0.0
  0
LINE
  8
0
 62
     0
 10
478.441
 20
491.532
 30
0.0
 11
478.681
 21
491.716
 31
0.0
  0
LINE
  8
0
 62
     0
 10
478.681
 20
491.716
 30
0.0
 11
479.397
 21
492.266
 31
0.0
  0
LINE
  8
0
 62
     0
 10
479.397
 20
492.266
 30
0.0
 11
480.303
 21
492.979
 31
0.0
  0
LINE
  8
0
 62
     0
 10
480.303
 20
492.979
 30
0.0
 11
481.062
 21
493.582
 31
0.0
  0
LINE
  8
0
 62
     0
 10
481.062
 20
493.582
 30
0.0
 11
481.453
 21
493.903
 31
0.0
  0
LINE
  8
0
 62
     0
 10
481.453
 20
493.903
 30
0.0
 11
481.566
 21
494.002
 31
0.0
  0
LINE
  8
0
 62
     0
 10
481.566
 20
494.002
 30
0.0
 11
481.827
 21
494.224
 31
0.0
  0
LINE
  8
0
 62
     0
 10
481.827
 20
494.224
 30
0.0
 11
482.579
 21
494.926
 31
0.0
  0
LINE
  8
0
 62
     0
 10
482.579
 20
494.926
 30
0.0
 11
483.807
 21
496.136
 31
0.0
  0
LINE
  8
0
 62
     0
 10
483.807
 20
496.136
 30
0.0
 11
485.154
 21
497.523
 31
0.0
  0
LINE
  8
0
 62
     0
 10
485.154
 20
497.523
 30
0.0
 11
486.526
 21
498.979
 31
0.0
  0
LINE
  8
0
 62
     0
 10
486.526
 20
498.979
 30
0.0
 11
487.821
 21
500.401
 31
0.0
  0
LINE
  8
0
 62
     0
 10
487.821
 20
500.401
 30
0.0
 11
488.939
 21
501.682
 31
0.0
  0
LINE
  8
0
 62
     0
 10
488.939
 20
501.682
 30
0.0
 11
489.786
 21
502.715
 31
0.0
  0
LINE
  8
0
 62
     0
 10
489.786
 20
502.715
 30
0.0
 11
490.164
 21
503.213
 31
0.0
  0
LINE
  8
0
 62
     0
 10
490.164
 20
503.213
 30
0.0
 11
490.262
 21
503.393
 31
0.0
  0
LINE
  8
0
 62
     0
 10
490.262
 20
503.393
 30
0.0
 11
490.312
 21
503.484
 31
0.0
  0
LINE
  8
0
 62
     0
 10
490.312
 20
503.484
 30
0.0
 11
490.513
 21
503.767
 31
0.0
  0
LINE
  8
0
 62
     0
 10
490.513
 20
503.767
 30
0.0
 11
490.929
 21
504.296
 31
0.0
  0
LINE
  8
0
 62
     0
 10
490.929
 20
504.296
 30
0.0
 11
491.458
 21
504.917
 31
0.0
  0
LINE
  8
0
 62
     0
 10
491.458
 20
504.917
 30
0.0
 11
491.892
 21
505.4
 31
0.0
  0
LINE
  8
0
 62
     0
 10
491.892
 20
505.4
 30
0.0
 11
492.037
 21
505.555
 31
0.0
  0
LINE
  8
0
 62
     0
 10
492.037
 20
505.555
 30
0.0
 11
492.453
 21
506
 31
0.0
  0
LINE
  8
0
 62
     0
 10
492.453
 20
506
 30
0.0
 11
494.605
 21
508.702
 31
0.0
  0
LINE
  8
0
 62
     0
 10
494.605
 20
508.702
 30
0.0
 11
496.51
 21
511.581
 31
0.0
  0
LINE
  8
0
 62
     0
 10
496.51
 20
511.581
 30
0.0
 11
496.803
 21
512.113
 31
0.0
  0
LINE
  8
0
 62
     0
 10
496.803
 20
512.113
 30
0.0
 11
497.639
 21
513.627
 31
0.0
  0
LINE
  8
0
 62
     0
 10
497.639
 20
513.627
 30
0.0
 11
497.639
 21
513.63
 31
0.0
  0
LINE
  8
0
 62
     0
 10
375.221
 20
428.928
 30
0.0
 11
375.211
 21
427.895
 31
0.0
  0
LINE
  8
0
 62
     0
 10
375.211
 20
427.895
 30
0.0
 11
374.992
 21
424.801
 31
0.0
  0
LINE
  8
0
 62
     0
 10
374.992
 20
424.801
 30
0.0
 11
374.382
 21
420.568
 31
0.0
  0
LINE
  8
0
 62
     0
 10
374.382
 20
420.568
 30
0.0
 11
373.384
 21
416.278
 31
0.0
  0
LINE
  8
0
 62
     0
 10
373.384
 20
416.278
 30
0.0
 11
371.994
 21
411.988
 31
0.0
  0
LINE
  8
0
 62
     0
 10
371.994
 20
411.988
 30
0.0
 11
370.216
 21
407.741
 31
0.0
  0
LINE
  8
0
 62
     0
 10
370.216
 20
407.741
 30
0.0
 11
368.046
 21
403.595
 31
0.0
  0
LINE
  8
0
 62
     0
 10
368.046
 20
403.595
 30
0.0
 11
365.485
 21
399.602
 31
0.0
  0
LINE
  8
0
 62
     0
 10
365.485
 20
399.602
 30
0.0
 11
362.525
 21
395.813
 31
0.0
  0
LINE
  8
0
 62
     0
 10
362.525
 20
395.813
 30
0.0
 11
359.174
 21
392.278
 31
0.0
  0
LINE
  8
0
 62
     0
 10
359.174
 20
392.278
 30
0.0
 11
355.427
 21
389.05
 31
0.0
  0
LINE
  8
0
 62
     0
 10
355.427
 20
389.05
 30
0.0
 11
351.28
 21
386.186
 31
0.0
  0
LINE
  8
0
 62
     0
 10
351.28
 20
386.186
 30
0.0
 11
346.735
 21
383.727
 31
0.0
  0
LINE
  8
0
 62
     0
 10
346.735
 20
383.727
 30
0.0
 11
341.789
 21
381.737
 31
0.0
  0
LINE
  8
0
 62
     0
 10
341.789
 20
381.737
 30
0.0
 11
336.441
 21
380.256
 31
0.0
  0
LINE
  8
0
 62
     0
 10
336.441
 20
380.256
 30
0.0
 11
330.689
 21
379.345
 31
0.0
  0
LINE
  8
0
 62
     0
 10
330.689
 20
379.345
 30
0.0
 11
326.073
 21
379.046
 31
0.0
  0
LINE
  8
0
 62
     0
 10
326.073
 20
379.046
 30
0.0
 11
324.535
 21
379.053
 31
0.0
  0
LINE
  8
0
 62
     0
 10
324.535
 20
379.053
 30
0.0
 11
322.993
 21
379.06
 31
0.0
  0
LINE
  8
0
 62
     0
 10
322.993
 20
379.06
 30
0.0
 11
318.37
 21
379.349
 31
0.0
  0
LINE
  8
0
 62
     0
 10
318.37
 20
379.349
 30
0.0
 11
312.594
 21
380.146
 31
0.0
  0
LINE
  8
0
 62
     0
 10
312.594
 20
380.146
 30
0.0
 11
307.209
 21
381.42
 31
0.0
  0
LINE
  8
0
 62
     0
 10
307.209
 20
381.42
 30
0.0
 11
302.218
 21
383.141
 31
0.0
  0
LINE
  8
0
 62
     0
 10
302.218
 20
383.141
 30
0.0
 11
297.619
 21
385.283
 31
0.0
  0
LINE
  8
0
 62
     0
 10
297.619
 20
385.283
 30
0.0
 11
293.417
 21
387.819
 31
0.0
  0
LINE
  8
0
 62
     0
 10
293.417
 20
387.819
 30
0.0
 11
289.613
 21
390.723
 31
0.0
  0
LINE
  8
0
 62
     0
 10
289.613
 20
390.723
 30
0.0
 11
286.209
 21
393.961
 31
0.0
  0
LINE
  8
0
 62
     0
 10
286.209
 20
393.961
 30
0.0
 11
283.206
 21
397.51
 31
0.0
  0
LINE
  8
0
 62
     0
 10
283.206
 20
397.51
 30
0.0
 11
280.606
 21
401.345
 31
0.0
  0
LINE
  8
0
 62
     0
 10
280.606
 20
401.345
 30
0.0
 11
278.412
 21
405.433
 31
0.0
  0
LINE
  8
0
 62
     0
 10
278.412
 20
405.433
 30
0.0
 11
276.625
 21
409.751
 31
0.0
  0
LINE
  8
0
 62
     0
 10
276.625
 20
409.751
 30
0.0
 11
275.247
 21
414.267
 31
0.0
  0
LINE
  8
0
 62
     0
 10
275.247
 20
414.267
 30
0.0
 11
274.279
 21
418.959
 31
0.0
  0
LINE
  8
0
 62
     0
 10
274.279
 20
418.959
 30
0.0
 11
273.724
 21
423.795
 31
0.0
  0
LINE
  8
0
 62
     0
 10
273.724
 20
423.795
 30
0.0
 11
273.567
 21
427.514
 31
0.0
  0
LINE
  8
0
 62
     0
 10
273.567
 20
427.514
 30
0.0
 11
273.583
 21
428.752
 31
0.0
  0
LINE
  8
0
 62
     0
 10
273.583
 20
428.752
 30
0.0
 11
273.599
 21
429.99
 31
0.0
  0
LINE
  8
0
 62
     0
 10
273.599
 20
429.99
 30
0.0
 11
273.891
 21
433.701
 31
0.0
  0
LINE
  8
0
 62
     0
 10
273.891
 20
433.701
 30
0.0
 11
274.669
 21
438.52
 31
0.0
  0
LINE
  8
0
 62
     0
 10
274.669
 20
438.52
 30
0.0
 11
275.901
 21
443.184
 31
0.0
  0
LINE
  8
0
 62
     0
 10
275.901
 20
443.184
 30
0.0
 11
277.57
 21
447.668
 31
0.0
  0
LINE
  8
0
 62
     0
 10
277.57
 20
447.668
 30
0.0
 11
279.659
 21
451.947
 31
0.0
  0
LINE
  8
0
 62
     0
 10
279.659
 20
451.947
 30
0.0
 11
282.151
 21
455.993
 31
0.0
  0
LINE
  8
0
 62
     0
 10
282.151
 20
455.993
 30
0.0
 11
285.026
 21
459.779
 31
0.0
  0
LINE
  8
0
 62
     0
 10
285.026
 20
459.779
 30
0.0
 11
288.272
 21
463.282
 31
0.0
  0
LINE
  8
0
 62
     0
 10
288.272
 20
463.282
 30
0.0
 11
291.869
 21
466.475
 31
0.0
  0
LINE
  8
0
 62
     0
 10
291.869
 20
466.475
 30
0.0
 11
295.799
 21
469.329
 31
0.0
  0
LINE
  8
0
 62
     0
 10
295.799
 20
469.329
 30
0.0
 11
300.046
 21
471.823
 31
0.0
  0
LINE
  8
0
 62
     0
 10
300.046
 20
471.823
 30
0.0
 11
304.593
 21
473.929
 31
0.0
  0
LINE
  8
0
 62
     0
 10
304.593
 20
473.929
 30
0.0
 11
309.423
 21
475.619
 31
0.0
  0
LINE
  8
0
 62
     0
 10
309.423
 20
475.619
 30
0.0
 11
314.518
 21
476.871
 31
0.0
  0
LINE
  8
0
 62
     0
 10
314.518
 20
476.871
 30
0.0
 11
319.862
 21
477.654
 31
0.0
  0
LINE
  8
0
 62
     0
 10
319.862
 20
477.654
 30
0.0
 11
324.044
 21
477.94
 31
0.0
  0
LINE
  8
0
 62
     0
 10
324.044
 20
477.94
 30
0.0
 11
325.439
 21
477.95
 31
0.0
  0
LINE
  8
0
 62
     0
 10
325.439
 20
477.95
 30
0.0
 11
326.827
 21
477.957
 31
0.0
  0
LINE
  8
0
 62
     0
 10
326.827
 20
477.957
 30
0.0
 11
330.997
 21
477.672
 31
0.0
  0
LINE
  8
0
 62
     0
 10
330.997
 20
477.672
 30
0.0
 11
336.291
 21
476.79
 31
0.0
  0
LINE
  8
0
 62
     0
 10
336.291
 20
476.79
 30
0.0
 11
341.307
 21
475.354
 31
0.0
  0
LINE
  8
0
 62
     0
 10
341.307
 20
475.354
 30
0.0
 11
346.034
 21
473.417
 31
0.0
  0
LINE
  8
0
 62
     0
 10
346.034
 20
473.417
 30
0.0
 11
350.457
 21
471.029
 31
0.0
  0
LINE
  8
0
 62
     0
 10
350.457
 20
471.029
 30
0.0
 11
354.563
 21
468.231
 31
0.0
  0
LINE
  8
0
 62
     0
 10
354.563
 20
468.231
 30
0.0
 11
358.338
 21
465.081
 31
0.0
  0
LINE
  8
0
 62
     0
 10
358.338
 20
465.081
 30
0.0
 11
361.767
 21
461.627
 31
0.0
  0
LINE
  8
0
 62
     0
 10
361.767
 20
461.627
 30
0.0
 11
364.839
 21
457.913
 31
0.0
  0
LINE
  8
0
 62
     0
 10
364.839
 20
457.913
 30
0.0
 11
367.542
 21
453.997
 31
0.0
  0
LINE
  8
0
 62
     0
 10
367.542
 20
453.997
 30
0.0
 11
369.859
 21
449.922
 31
0.0
  0
LINE
  8
0
 62
     0
 10
369.859
 20
449.922
 30
0.0
 11
371.782
 21
445.738
 31
0.0
  0
LINE
  8
0
 62
     0
 10
371.782
 20
445.738
 30
0.0
 11
373.292
 21
441.498
 31
0.0
  0
LINE
  8
0
 62
     0
 10
373.292
 20
441.498
 30
0.0
 11
374.375
 21
437.25
 31
0.0
  0
LINE
  8
0
 62
     0
 10
374.375
 20
437.25
 30
0.0
 11
375.024
 21
433.045
 31
0.0
  0
LINE
  8
0
 62
     0
 10
375.024
 20
433.045
 30
0.0
 11
375.229
 21
429.955
 31
0.0
  0
LINE
  8
0
 62
     0
 10
375.229
 20
429.955
 30
0.0
 11
375.221
 21
428.928
 31
0.0
  0
LINE
  8
0
 62
     0
 10
416.239
 20
428.618
 30
0.0
 11
416.267
 21
429.846
 31
0.0
  0
LINE
  8
0
 62
     0
 10
416.267
 20
429.846
 30
0.0
 11
416.652
 21
433.532
 31
0.0
  0
LINE
  8
0
 62
     0
 10
416.652
 20
433.532
 30
0.0
 11
417.647
 21
438.365
 31
0.0
  0
LINE
  8
0
 62
     0
 10
417.647
 20
438.365
 30
0.0
 11
419.178
 21
443.089
 31
0.0
  0
LINE
  8
0
 62
     0
 10
419.178
 20
443.089
 30
0.0
 11
421.199
 21
447.668
 31
0.0
  0
LINE
  8
0
 62
     0
 10
421.199
 20
447.668
 30
0.0
 11
423.668
 21
452.067
 31
0.0
  0
LINE
  8
0
 62
     0
 10
423.668
 20
452.067
 30
0.0
 11
426.533
 21
456.255
 31
0.0
  0
LINE
  8
0
 62
     0
 10
426.533
 20
456.255
 30
0.0
 11
429.754
 21
460.202
 31
0.0
  0
LINE
  8
0
 62
     0
 10
429.754
 20
460.202
 30
0.0
 11
433.278
 21
463.871
 31
0.0
  0
LINE
  8
0
 62
     0
 10
433.278
 20
463.871
 30
0.0
 11
437.067
 21
467.226
 31
0.0
  0
LINE
  8
0
 62
     0
 10
437.067
 20
467.226
 30
0.0
 11
441.067
 21
470.242
 31
0.0
  0
LINE
  8
0
 62
     0
 10
441.067
 20
470.242
 30
0.0
 11
445.241
 21
472.881
 31
0.0
  0
LINE
  8
0
 62
     0
 10
445.241
 20
472.881
 30
0.0
 11
449.534
 21
475.107
 31
0.0
  0
LINE
  8
0
 62
     0
 10
449.534
 20
475.107
 30
0.0
 11
453.909
 21
476.892
 31
0.0
  0
LINE
  8
0
 62
     0
 10
453.909
 20
476.892
 30
0.0
 11
458.315
 21
478.204
 31
0.0
  0
LINE
  8
0
 62
     0
 10
458.315
 20
478.204
 30
0.0
 11
462.707
 21
479.005
 31
0.0
  0
LINE
  8
0
 62
     0
 10
462.707
 20
479.005
 30
0.0
 11
465.956
 21
479.27
 31
0.0
  0
LINE
  8
0
 62
     0
 10
465.956
 20
479.27
 30
0.0
 11
467.039
 21
479.263
 31
0.0
  0
LINE
  8
0
 62
     0
 10
467.039
 20
479.263
 30
0.0
 11
468.111
 21
479.259
 31
0.0
  0
LINE
  8
0
 62
     0
 10
468.111
 20
479.259
 30
0.0
 11
471.329
 21
478.97
 31
0.0
  0
LINE
  8
0
 62
     0
 10
471.329
 20
478.97
 30
0.0
 11
475.615
 21
478.159
 31
0.0
  0
LINE
  8
0
 62
     0
 10
475.615
 20
478.159
 30
0.0
 11
479.855
 21
476.853
 31
0.0
  0
LINE
  8
0
 62
     0
 10
479.855
 20
476.853
 30
0.0
 11
484.011
 21
475.089
 31
0.0
  0
LINE
  8
0
 62
     0
 10
484.011
 20
475.089
 30
0.0
 11
488.047
 21
472.902
 31
0.0
  0
LINE
  8
0
 62
     0
 10
488.047
 20
472.902
 30
0.0
 11
491.924
 21
470.316
 31
0.0
  0
LINE
  8
0
 62
     0
 10
491.924
 20
470.316
 30
0.0
 11
495.61
 21
467.367
 31
0.0
  0
LINE
  8
0
 62
     0
 10
495.61
 20
467.367
 30
0.0
 11
499.064
 21
464.083
 31
0.0
  0
LINE
  8
0
 62
     0
 10
499.064
 20
464.083
 30
0.0
 11
502.25
 21
460.498
 31
0.0
  0
LINE
  8
0
 62
     0
 10
502.25
 20
460.498
 30
0.0
 11
505.132
 21
456.639
 31
0.0
  0
LINE
  8
0
 62
     0
 10
505.132
 20
456.639
 30
0.0
 11
507.672
 21
452.543
 31
0.0
  0
LINE
  8
0
 62
     0
 10
507.672
 20
452.543
 30
0.0
 11
509.834
 21
448.239
 31
0.0
  0
LINE
  8
0
 62
     0
 10
509.834
 20
448.239
 30
0.0
 11
511.577
 21
443.756
 31
0.0
  0
LINE
  8
0
 62
     0
 10
511.577
 20
443.756
 30
0.0
 11
512.868
 21
439.127
 31
0.0
  0
LINE
  8
0
 62
     0
 10
512.868
 20
439.127
 30
0.0
 11
513.673
 21
434.382
 31
0.0
  0
LINE
  8
0
 62
     0
 10
513.673
 20
434.382
 30
0.0
 11
513.948
 21
430.763
 31
0.0
  0
LINE
  8
0
 62
     0
 10
513.948
 20
430.763
 30
0.0
 11
513.948
 21
429.556
 31
0.0
  0
LINE
  8
0
 62
     0
 10
513.948
 20
429.556
 30
0.0
 11
513.948
 21
428.346
 31
0.0
  0
LINE
  8
0
 62
     0
 10
513.948
 20
428.346
 30
0.0
 11
513.736
 21
424.716
 31
0.0
  0
LINE
  8
0
 62
     0
 10
513.736
 20
424.716
 30
0.0
 11
513.112
 21
419.94
 31
0.0
  0
LINE
  8
0
 62
     0
 10
513.112
 20
419.94
 30
0.0
 11
512.082
 21
415.258
 31
0.0
  0
LINE
  8
0
 62
     0
 10
512.082
 20
415.258
 30
0.0
 11
510.66
 21
410.704
 31
0.0
  0
LINE
  8
0
 62
     0
 10
510.66
 20
410.704
 30
0.0
 11
508.854
 21
406.319
 31
0.0
  0
LINE
  8
0
 62
     0
 10
508.854
 20
406.319
 30
0.0
 11
506.681
 21
402.131
 31
0.0
  0
LINE
  8
0
 62
     0
 10
506.681
 20
402.131
 30
0.0
 11
504.144
 21
398.18
 31
0.0
  0
LINE
  8
0
 62
     0
 10
504.144
 20
398.18
 30
0.0
 11
501.258
 21
394.497
 31
0.0
  0
LINE
  8
0
 62
     0
 10
501.258
 20
394.497
 30
0.0
 11
498.038
 21
391.118
 31
0.0
  0
LINE
  8
0
 62
     0
 10
498.038
 20
391.118
 30
0.0
 11
494.489
 21
388.077
 31
0.0
  0
LINE
  8
0
 62
     0
 10
494.489
 20
388.077
 30
0.0
 11
490.626
 21
385.41
 31
0.0
  0
LINE
  8
0
 62
     0
 10
490.626
 20
385.41
 30
0.0
 11
486.456
 21
383.148
 31
0.0
  0
LINE
  8
0
 62
     0
 10
486.456
 20
383.148
 30
0.0
 11
481.99
 21
381.328
 31
0.0
  0
LINE
  8
0
 62
     0
 10
481.99
 20
381.328
 30
0.0
 11
477.245
 21
379.988
 31
0.0
  0
LINE
  8
0
 62
     0
 10
477.245
 20
379.988
 30
0.0
 11
472.225
 21
379.159
 31
0.0
  0
LINE
  8
0
 62
     0
 10
472.225
 20
379.159
 30
0.0
 11
468.263
 21
378.873
 31
0.0
  0
LINE
  8
0
 62
     0
 10
468.263
 20
378.873
 30
0.0
 11
466.947
 21
378.873
 31
0.0
  0
LINE
  8
0
 62
     0
 10
466.947
 20
378.873
 30
0.0
 11
465.614
 21
378.873
 31
0.0
  0
LINE
  8
0
 62
     0
 10
465.614
 20
378.873
 30
0.0
 11
461.617
 21
379.141
 31
0.0
  0
LINE
  8
0
 62
     0
 10
461.617
 20
379.141
 30
0.0
 11
456.463
 21
379.928
 31
0.0
  0
LINE
  8
0
 62
     0
 10
456.463
 20
379.928
 30
0.0
 11
451.51
 21
381.205
 31
0.0
  0
LINE
  8
0
 62
     0
 10
451.51
 20
381.205
 30
0.0
 11
446.779
 21
382.94
 31
0.0
  0
LINE
  8
0
 62
     0
 10
446.779
 20
382.94
 30
0.0
 11
442.292
 21
385.103
 31
0.0
  0
LINE
  8
0
 62
     0
 10
442.292
 20
385.103
 30
0.0
 11
438.079
 21
387.664
 31
0.0
  0
LINE
  8
0
 62
     0
 10
438.079
 20
387.664
 30
0.0
 11
434.164
 21
390.592
 31
0.0
  0
LINE
  8
0
 62
     0
 10
434.164
 20
390.592
 30
0.0
 11
430.565
 21
393.862
 31
0.0
  0
LINE
  8
0
 62
     0
 10
430.565
 20
393.862
 30
0.0
 11
427.316
 21
397.439
 31
0.0
  0
LINE
  8
0
 62
     0
 10
427.316
 20
397.439
 30
0.0
 11
424.43
 21
401.295
 31
0.0
  0
LINE
  8
0
 62
     0
 10
424.43
 20
401.295
 30
0.0
 11
421.94
 21
405.402
 31
0.0
  0
LINE
  8
0
 62
     0
 10
421.94
 20
405.402
 30
0.0
 11
419.869
 21
409.727
 31
0.0
  0
LINE
  8
0
 62
     0
 10
419.869
 20
409.727
 30
0.0
 11
418.239
 21
414.239
 31
0.0
  0
LINE
  8
0
 62
     0
 10
418.239
 20
414.239
 30
0.0
 11
417.075
 21
418.913
 31
0.0
  0
LINE
  8
0
 62
     0
 10
417.075
 20
418.913
 30
0.0
 11
416.398
 21
423.714
 31
0.0
  0
LINE
  8
0
 62
     0
 10
416.398
 20
423.714
 30
0.0
 11
416.214
 21
427.394
 31
0.0
  0
LINE
  8
0
 62
     0
 10
416.214
 20
427.394
 30
0.0
 11
416.239
 21
428.618
 31
0.0
  0
LINE
  8
0
 62
     0
 10
227.802
 20
412.856
 30
0.0
 11
233.764
 21
412.775
 31
0.0
  0
LINE
  8
0
 62
     0
 10
233.764
 20
412.775
 30
0.0
 11
233.785
 21
410.609
 31
0.0
  0
LINE
  8
0
 62
     0
 10
233.785
 20
410.609
 30
0.0
 11
234.09
 21
404.107
 31
0.0
  0
LINE
  8
0
 62
     0
 10
234.09
 20
404.107
 30
0.0
 11
234.871
 21
395.63
 31
0.0
  0
LINE
  8
0
 62
     0
 10
234.871
 20
395.63
 30
0.0
 11
236.092
 21
387.35
 31
0.0
  0
LINE
  8
0
 62
     0
 10
236.092
 20
387.35
 30
0.0
 11
237.735
 21
379.275
 31
0.0
  0
LINE
  8
0
 62
     0
 10
237.735
 20
379.275
 30
0.0
 11
239.784
 21
371.408
 31
0.0
  0
LINE
  8
0
 62
     0
 10
239.784
 20
371.408
 30
0.0
 11
242.223
 21
363.753
 31
0.0
  0
LINE
  8
0
 62
     0
 10
242.223
 20
363.753
 30
0.0
 11
245.035
 21
356.316
 31
0.0
  0
LINE
  8
0
 62
     0
 10
245.035
 20
356.316
 30
0.0
 11
248.204
 21
349.101
 31
0.0
  0
LINE
  8
0
 62
     0
 10
248.204
 20
349.101
 30
0.0
 11
251.714
 21
342.114
 31
0.0
  0
LINE
  8
0
 62
     0
 10
251.714
 20
342.114
 30
0.0
 11
255.548
 21
335.362
 31
0.0
  0
LINE
  8
0
 62
     0
 10
255.548
 20
335.362
 30
0.0
 11
259.69
 21
328.847
 31
0.0
  0
LINE
  8
0
 62
     0
 10
259.69
 20
328.847
 30
0.0
 11
264.124
 21
322.575
 31
0.0
  0
LINE
  8
0
 62
     0
 10
264.124
 20
322.575
 30
0.0
 11
268.833
 21
316.552
 31
0.0
  0
LINE
  8
0
 62
     0
 10
268.833
 20
316.552
 30
0.0
 11
273.802
 21
310.782
 31
0.0
  0
LINE
  8
0
 62
     0
 10
273.802
 20
310.782
 30
0.0
 11
279.014
 21
305.27
 31
0.0
  0
LINE
  8
0
 62
     0
 10
279.014
 20
305.27
 30
0.0
 11
284.453
 21
300.021
 31
0.0
  0
LINE
  8
0
 62
     0
 10
284.453
 20
300.021
 30
0.0
 11
290.102
 21
295.042
 31
0.0
  0
LINE
  8
0
 62
     0
 10
290.102
 20
295.042
 30
0.0
 11
295.945
 21
290.335
 31
0.0
  0
LINE
  8
0
 62
     0
 10
295.945
 20
290.335
 30
0.0
 11
301.964
 21
285.907
 31
0.0
  0
LINE
  8
0
 62
     0
 10
301.964
 20
285.907
 30
0.0
 11
308.146
 21
281.763
 31
0.0
  0
LINE
  8
0
 62
     0
 10
308.146
 20
281.763
 30
0.0
 11
314.472
 21
277.908
 31
0.0
  0
LINE
  8
0
 62
     0
 10
314.472
 20
277.908
 30
0.0
 11
320.929
 21
274.347
 31
0.0
  0
LINE
  8
0
 62
     0
 10
320.929
 20
274.347
 30
0.0
 11
327.496
 21
271.084
 31
0.0
  0
LINE
  8
0
 62
     0
 10
327.496
 20
271.084
 30
0.0
 11
334.161
 21
268.125
 31
0.0
  0
LINE
  8
0
 62
     0
 10
334.161
 20
268.125
 30
0.0
 11
340.905
 21
265.475
 31
0.0
  0
LINE
  8
0
 62
     0
 10
340.905
 20
265.475
 30
0.0
 11
347.711
 21
263.139
 31
0.0
  0
LINE
  8
0
 62
     0
 10
347.711
 20
263.139
 30
0.0
 11
354.566
 21
261.122
 31
0.0
  0
LINE
  8
0
 62
     0
 10
354.566
 20
261.122
 30
0.0
 11
361.453
 21
259.428
 31
0.0
  0
LINE
  8
0
 62
     0
 10
361.453
 20
259.428
 30
0.0
 11
368.349
 21
258.065
 31
0.0
  0
LINE
  8
0
 62
     0
 10
368.349
 20
258.065
 30
0.0
 11
375.25
 21
257.036
 31
0.0
  0
LINE
  8
0
 62
     0
 10
375.25
 20
257.036
 30
0.0
 11
382.129
 21
256.345
 31
0.0
  0
LINE
  8
0
 62
     0
 10
382.129
 20
256.345
 30
0.0
 11
387.262
 21
256.042
 31
0.0
  0
LINE
  8
0
 62
     0
 10
387.262
 20
256.042
 30
0.0
 11
388.976
 21
255.998
 31
0.0
  0
LINE
  8
0
 62
     0
 10
388.976
 20
255.998
 30
0.0
 11
388.983
 21
251.561
 31
0.0
  0
LINE
  8
0
 62
     0
 10
388.983
 20
251.561
 30
0.0
 11
387.223
 21
251.597
 31
0.0
  0
LINE
  8
0
 62
     0
 10
387.223
 20
251.597
 30
0.0
 11
378.456
 21
252.108
 31
0.0
  0
LINE
  8
0
 62
     0
 10
378.456
 20
252.108
 30
0.0
 11
369.725
 21
253.067
 31
0.0
  0
LINE
  8
0
 62
     0
 10
369.725
 20
253.067
 30
0.0
 11
367.986
 21
253.325
 31
0.0
  0
LINE
  8
0
 62
     0
 10
367.986
 20
253.325
 30
0.0
 11
367.979
 21
253.325
 31
0.0
  0
LINE
  8
0
 62
     0
 10
367.979
 20
253.325
 30
0.0
 11
367.855
 21
253.343
 31
0.0
  0
LINE
  8
0
 62
     0
 10
367.855
 20
253.343
 30
0.0
 11
366.649
 21
253.523
 31
0.0
  0
LINE
  8
0
 62
     0
 10
366.649
 20
253.523
 30
0.0
 11
366.529
 21
253.541
 31
0.0
  0
LINE
  8
0
 62
     0
 10
366.529
 20
253.541
 30
0.0
 11
365.809
 21
253.642
 31
0.0
  0
LINE
  8
0
 62
     0
 10
365.809
 20
253.642
 30
0.0
 11
358.634
 21
254.828
 31
0.0
  0
LINE
  8
0
 62
     0
 10
358.634
 20
254.828
 30
0.0
 11
357.918
 21
254.964
 31
0.0
  0
LINE
  8
0
 62
     0
 10
357.918
 20
254.964
 30
0.0
 11
357.794
 21
254.996
 31
0.0
  0
LINE
  8
0
 62
     0
 10
357.794
 20
254.996
 30
0.0
 11
356.567
 21
255.306
 31
0.0
  0
LINE
  8
0
 62
     0
 10
356.567
 20
255.306
 30
0.0
 11
356.443
 21
255.338
 31
0.0
  0
LINE
  8
0
 62
     0
 10
356.443
 20
255.338
 30
0.0
 11
356.334
 21
255.366
 31
0.0
  0
LINE
  8
0
 62
     0
 10
356.334
 20
255.366
 30
0.0
 11
355.24
 21
255.644
 31
0.0
  0
LINE
  8
0
 62
     0
 10
355.24
 20
255.644
 30
0.0
 11
355.131
 21
255.671
 31
0.0
  0
LINE
  8
0
 62
     0
 10
355.131
 20
255.671
 30
0.0
 11
355.046
 21
255.694
 31
0.0
  0
LINE
  8
0
 62
     0
 10
355.046
 20
255.694
 30
0.0
 11
354.196
 21
255.909
 31
0.0
  0
LINE
  8
0
 62
     0
 10
354.196
 20
255.909
 30
0.0
 11
354.111
 21
255.929
 31
0.0
  0
LINE
  8
0
 62
     0
 10
354.111
 20
255.929
 30
0.0
 11
354.101
 21
255.932
 31
0.0
  0
LINE
  8
0
 62
     0
 10
354.101
 20
255.932
 30
0.0
 11
353.035
 21
256.175
 31
0.0
  0
LINE
  8
0
 62
     0
 10
353.035
 20
256.175
 30
0.0
 11
342.5
 21
259.012
 31
0.0
  0
LINE
  8
0
 62
     0
 10
342.5
 20
259.012
 30
0.0
 11
341.46
 21
259.337
 31
0.0
  0
LINE
  8
0
 62
     0
 10
341.46
 20
259.337
 30
0.0
 11
341.454
 21
259.337
 31
0.0
  0
LINE
  8
0
 62
     0
 10
341.454
 20
259.337
 30
0.0
 11
341.454
 21
259.337
 31
0.0
  0
LINE
  8
0
 62
     0
 10
341.454
 20
259.337
 30
0.0
 11
341.452
 21
259.34
 31
0.0
  0
LINE
  8
0
 62
     0
 10
341.452
 20
259.34
 30
0.0
 11
341.452
 21
259.34
 31
0.0
  0
LINE
  8
0
 62
     0
 10
341.452
 20
259.34
 30
0.0
 11
341.313
 21
259.389
 31
0.0
  0
LINE
  8
0
 62
     0
 10
341.313
 20
259.389
 30
0.0
 11
339.932
 21
259.89
 31
0.0
  0
LINE
  8
0
 62
     0
 10
339.932
 20
259.89
 30
0.0
 11
339.794
 21
259.941
 31
0.0
  0
LINE
  8
0
 62
     0
 10
339.794
 20
259.941
 30
0.0
 11
339.794
 21
259.941
 31
0.0
  0
LINE
  8
0
 62
     0
 10
339.794
 20
259.941
 30
0.0
 11
339.79
 21
259.941
 31
0.0
  0
LINE
  8
0
 62
     0
 10
339.79
 20
259.941
 30
0.0
 11
339.79
 21
259.941
 31
0.0
  0
LINE
  8
0
 62
     0
 10
339.79
 20
259.941
 30
0.0
 11
339.571
 21
260.018
 31
0.0
  0
LINE
  8
0
 62
     0
 10
339.571
 20
260.018
 30
0.0
 11
337.389
 21
260.809
 31
0.0
  0
LINE
  8
0
 62
     0
 10
337.389
 20
260.809
 30
0.0
 11
337.173
 21
260.889
 31
0.0
  0
LINE
  8
0
 62
     0
 10
337.173
 20
260.889
 30
0.0
 11
337.173
 21
260.889
 31
0.0
  0
LINE
  8
0
 62
     0
 10
337.173
 20
260.889
 30
0.0
 11
337.166
 21
260.893
 31
0.0
  0
LINE
  8
0
 62
     0
 10
337.166
 20
260.893
 30
0.0
 11
337.166
 21
260.893
 31
0.0
  0
LINE
  8
0
 62
     0
 10
337.166
 20
260.893
 30
0.0
 11
336.274
 21
261.195
 31
0.0
  0
LINE
  8
0
 62
     0
 10
336.274
 20
261.195
 30
0.0
 11
327.481
 21
264.505
 31
0.0
  0
LINE
  8
0
 62
     0
 10
327.481
 20
264.505
 30
0.0
 11
326.614
 21
264.866
 31
0.0
  0
LINE
  8
0
 62
     0
 10
326.614
 20
264.866
 30
0.0
 11
326.613
 21
264.866
 31
0.0
  0
LINE
  8
0
 62
     0
 10
326.613
 20
264.866
 30
0.0
 11
326.609
 21
264.87
 31
0.0
  0
LINE
  8
0
 62
     0
 10
326.609
 20
264.87
 30
0.0
 11
326.609
 21
264.87
 31
0.0
  0
LINE
  8
0
 62
     0
 10
326.609
 20
264.87
 30
0.0
 11
326.437
 21
264.951
 31
0.0
  0
LINE
  8
0
 62
     0
 10
326.437
 20
264.951
 30
0.0
 11
324.722
 21
265.774
 31
0.0
  0
LINE
  8
0
 62
     0
 10
324.722
 20
265.774
 30
0.0
 11
324.551
 21
265.857
 31
0.0
  0
LINE
  8
0
 62
     0
 10
324.551
 20
265.857
 30
0.0
 11
324.548
 21
265.857
 31
0.0
  0
LINE
  8
0
 62
     0
 10
324.548
 20
265.857
 30
0.0
 11
324.474
 21
265.892
 31
0.0
  0
LINE
  8
0
 62
     0
 10
324.474
 20
265.892
 30
0.0
 11
323.741
 21
266.244
 31
0.0
  0
LINE
  8
0
 62
     0
 10
323.741
 20
266.244
 30
0.0
 11
323.668
 21
266.278
 31
0.0
  0
LINE
  8
0
 62
     0
 10
323.668
 20
266.278
 30
0.0
 11
323.668
 21
266.278
 31
0.0
  0
LINE
  8
0
 62
     0
 10
323.668
 20
266.278
 30
0.0
 11
323.664
 21
266.278
 31
0.0
  0
LINE
  8
0
 62
     0
 10
323.664
 20
266.278
 30
0.0
 11
323.664
 21
266.278
 31
0.0
  0
LINE
  8
0
 62
     0
 10
323.664
 20
266.278
 30
0.0
 11
323.461
 21
266.373
 31
0.0
  0
LINE
  8
0
 62
     0
 10
323.461
 20
266.373
 30
0.0
 11
321.441
 21
267.342
 31
0.0
  0
LINE
  8
0
 62
     0
 10
321.441
 20
267.342
 30
0.0
 11
321.24
 21
267.44
 31
0.0
  0
LINE
  8
0
 62
     0
 10
321.24
 20
267.44
 30
0.0
 11
321.239
 21
267.442
 31
0.0
  0
LINE
  8
0
 62
     0
 10
321.239
 20
267.442
 30
0.0
 11
321.229
 21
267.447
 31
0.0
  0
LINE
  8
0
 62
     0
 10
321.229
 20
267.447
 30
0.0
 11
321.229
 21
267.447
 31
0.0
  0
LINE
  8
0
 62
     0
 10
321.229
 20
267.447
 30
0.0
 11
321.134
 21
267.492
 31
0.0
  0
LINE
  8
0
 62
     0
 10
321.134
 20
267.492
 30
0.0
 11
320.186
 21
267.947
 31
0.0
  0
LINE
  8
0
 62
     0
 10
320.186
 20
267.947
 30
0.0
 11
320.092
 21
267.993
 31
0.0
  0
LINE
  8
0
 62
     0
 10
320.092
 20
267.993
 30
0.0
 11
320.092
 21
267.993
 31
0.0
  0
LINE
  8
0
 62
     0
 10
320.092
 20
267.993
 30
0.0
 11
320.088
 21
267.995
 31
0.0
  0
LINE
  8
0
 62
     0
 10
320.088
 20
267.995
 30
0.0
 11
320.088
 21
267.995
 31
0.0
  0
LINE
  8
0
 62
     0
 10
320.088
 20
267.995
 30
0.0
 11
319.858
 21
268.103
 31
0.0
  0
LINE
  8
0
 62
     0
 10
319.858
 20
268.103
 30
0.0
 11
317.577
 21
269.197
 31
0.0
  0
LINE
  8
0
 62
     0
 10
317.577
 20
269.197
 30
0.0
 11
317.351
 21
269.307
 31
0.0
  0
LINE
  8
0
 62
     0
 10
317.351
 20
269.307
 30
0.0
 11
317.347
 21
269.307
 31
0.0
  0
LINE
  8
0
 62
     0
 10
317.347
 20
269.307
 30
0.0
 11
314.809
 21
270.591
 31
0.0
  0
LINE
  8
0
 62
     0
 10
314.809
 20
270.591
 30
0.0
 11
307.373
 21
274.794
 31
0.0
  0
LINE
  8
0
 62
     0
 10
307.373
 20
274.794
 30
0.0
 11
297.888
 21
280.898
 31
0.0
  0
LINE
  8
0
 62
     0
 10
297.888
 20
280.898
 30
0.0
 11
288.91
 21
287.587
 31
0.0
  0
LINE
  8
0
 62
     0
 10
288.91
 20
287.587
 30
0.0
 11
280.463
 21
294.828
 31
0.0
  0
LINE
  8
0
 62
     0
 10
280.463
 20
294.828
 30
0.0
 11
272.564
 21
302.591
 31
0.0
  0
LINE
  8
0
 62
     0
 10
272.564
 20
302.591
 30
0.0
 11
265.235
 21
310.838
 31
0.0
  0
LINE
  8
0
 62
     0
 10
265.235
 20
310.838
 30
0.0
 11
258.496
 21
319.539
 31
0.0
  0
LINE
  8
0
 62
     0
 10
258.496
 20
319.539
 30
0.0
 11
252.368
 21
328.662
 31
0.0
  0
LINE
  8
0
 62
     0
 10
252.368
 20
328.662
 30
0.0
 11
246.873
 21
338.173
 31
0.0
  0
LINE
  8
0
 62
     0
 10
246.873
 20
338.173
 30
0.0
 11
242.029
 21
348.04
 31
0.0
  0
LINE
  8
0
 62
     0
 10
242.029
 20
348.04
 30
0.0
 11
237.858
 21
358.228
 31
0.0
  0
LINE
  8
0
 62
     0
 10
237.858
 20
358.228
 30
0.0
 11
234.378
 21
368.706
 31
0.0
  0
LINE
  8
0
 62
     0
 10
234.378
 20
368.706
 30
0.0
 11
231.612
 21
379.441
 31
0.0
  0
LINE
  8
0
 62
     0
 10
231.612
 20
379.441
 30
0.0
 11
229.581
 21
390.398
 31
0.0
  0
LINE
  8
0
 62
     0
 10
229.581
 20
390.398
 30
0.0
 11
228.304
 21
401.549
 31
0.0
  0
LINE
  8
0
 62
     0
 10
228.304
 20
401.549
 30
0.0
 11
227.828
 21
410.03
 31
0.0
  0
LINE
  8
0
 62
     0
 10
227.828
 20
410.03
 30
0.0
 11
227.802
 21
412.856
 31
0.0
  0
LINE
  8
0
 62
     0
 10
550.686
 20
402.124
 30
0.0
 11
555.149
 21
402.414
 31
0.0
  0
LINE
  8
0
 62
     0
 10
555.149
 20
402.414
 30
0.0
 11
555.061
 21
400.946
 31
0.0
  0
LINE
  8
0
 62
     0
 10
555.061
 20
400.946
 30
0.0
 11
554.683
 21
396.554
 31
0.0
  0
LINE
  8
0
 62
     0
 10
554.683
 20
396.554
 30
0.0
 11
554.006
 21
390.959
 31
0.0
  0
LINE
  8
0
 62
     0
 10
554.006
 20
390.959
 30
0.0
 11
553.106
 21
385.396
 31
0.0
  0
LINE
  8
0
 62
     0
 10
553.106
 20
385.396
 30
0.0
 11
552.267
 21
381.067
 31
0.0
  0
LINE
  8
0
 62
     0
 10
552.267
 20
381.067
 30
0.0
 11
551.96
 21
379.628
 31
0.0
  0
LINE
  8
0
 62
     0
 10
551.96
 20
379.628
 30
0.0
 11
551.579
 21
377.931
 31
0.0
  0
LINE
  8
0
 62
     0
 10
551.579
 20
377.931
 30
0.0
 11
549.346
 21
369.517
 31
0.0
  0
LINE
  8
0
 62
     0
 10
549.346
 20
369.517
 30
0.0
 11
546.682
 21
361.23
 31
0.0
  0
LINE
  8
0
 62
     0
 10
546.682
 20
361.23
 30
0.0
 11
546.086
 21
359.593
 31
0.0
  0
LINE
  8
0
 62
     0
 10
546.086
 20
359.593
 30
0.0
 11
546.079
 21
359.576
 31
0.0
  0
LINE
  8
0
 62
     0
 10
546.079
 20
359.576
 30
0.0
 11
546.012
 21
359.392
 31
0.0
  0
LINE
  8
0
 62
     0
 10
546.012
 20
359.392
 30
0.0
 11
546.005
 21
359.375
 31
0.0
  0
LINE
  8
0
 62
     0
 10
546.005
 20
359.375
 30
0.0
 11
545.553
 21
358.126
 31
0.0
  0
LINE
  8
0
 62
     0
 10
545.553
 20
358.126
 30
0.0
 11
540.441
 21
345.879
 31
0.0
  0
LINE
  8
0
 62
     0
 10
540.441
 20
345.879
 30
0.0
 11
539.87
 21
344.68
 31
0.0
  0
LINE
  8
0
 62
     0
 10
539.87
 20
344.68
 30
0.0
 11
539.852
 21
344.639
 31
0.0
  0
LINE
  8
0
 62
     0
 10
539.852
 20
344.639
 30
0.0
 11
539.648
 21
344.22
 31
0.0
  0
LINE
  8
0
 62
     0
 10
539.648
 20
344.22
 30
0.0
 11
539.627
 21
344.177
 31
0.0
  0
LINE
  8
0
 62
     0
 10
539.627
 20
344.177
 30
0.0
 11
539.062
 21
343.009
 31
0.0
  0
LINE
  8
0
 62
     0
 10
539.062
 20
343.009
 30
0.0
 11
532.888
 21
331.599
 31
0.0
  0
LINE
  8
0
 62
     0
 10
532.888
 20
331.599
 30
0.0
 11
532.218
 21
330.487
 31
0.0
  0
LINE
  8
0
 62
     0
 10
532.218
 20
330.487
 30
0.0
 11
532.176
 21
330.418
 31
0.0
  0
LINE
  8
0
 62
     0
 10
532.176
 20
330.418
 30
0.0
 11
531.749
 21
329.726
 31
0.0
  0
LINE
  8
0
 62
     0
 10
531.749
 20
329.726
 30
0.0
 11
531.707
 21
329.657
 31
0.0
  0
LINE
  8
0
 62
     0
 10
531.707
 20
329.657
 30
0.0
 11
531.05
 21
328.582
 31
0.0
  0
LINE
  8
0
 62
     0
 10
531.05
 20
328.582
 30
0.0
 11
523.97
 21
318.152
 31
0.0
  0
LINE
  8
0
 62
     0
 10
523.97
 20
318.152
 30
0.0
 11
523.215
 21
317.142
 31
0.0
  0
LINE
  8
0
 62
     0
 10
523.215
 20
317.142
 30
0.0
 11
523.138
 21
317.044
 31
0.0
  0
LINE
  8
0
 62
     0
 10
523.138
 20
317.044
 30
0.0
 11
522.393
 21
316.069
 31
0.0
  0
LINE
  8
0
 62
     0
 10
522.393
 20
316.069
 30
0.0
 11
522.319
 21
315.972
 31
0.0
  0
LINE
  8
0
 62
     0
 10
522.319
 20
315.972
 30
0.0
 11
521.578
 21
315.003
 31
0.0
  0
LINE
  8
0
 62
     0
 10
521.578
 20
315.003
 30
0.0
 11
513.761
 21
305.657
 31
0.0
  0
LINE
  8
0
 62
     0
 10
513.761
 20
305.657
 30
0.0
 11
512.939
 21
304.757
 31
0.0
  0
LINE
  8
0
 62
     0
 10
512.939
 20
304.757
 30
0.0
 11
512.826
 21
304.635
 31
0.0
  0
LINE
  8
0
 62
     0
 10
512.826
 20
304.635
 30
0.0
 11
511.676
 21
303.412
 31
0.0
  0
LINE
  8
0
 62
     0
 10
511.676
 20
303.412
 30
0.0
 11
511.563
 21
303.29
 31
0.0
  0
LINE
  8
0
 62
     0
 10
511.563
 20
303.29
 30
0.0
 11
510.759
 21
302.435
 31
0.0
  0
LINE
  8
0
 62
     0
 10
510.759
 20
302.435
 30
0.0
 11
502.377
 21
294.236
 31
0.0
  0
LINE
  8
0
 62
     0
 10
502.377
 20
294.236
 30
0.0
 11
501.502
 21
293.452
 31
0.0
  0
LINE
  8
0
 62
     0
 10
501.502
 20
293.452
 30
0.0
 11
501.34
 21
293.309
 31
0.0
  0
LINE
  8
0
 62
     0
 10
501.34
 20
293.309
 30
0.0
 11
499.706
 21
291.885
 31
0.0
  0
LINE
  8
0
 62
     0
 10
499.706
 20
291.885
 30
0.0
 11
499.544
 21
291.743
 31
0.0
  0
LINE
  8
0
 62
     0
 10
499.544
 20
291.743
 30
0.0
 11
498.697
 21
291.007
 31
0.0
  0
LINE
  8
0
 62
     0
 10
498.697
 20
291.007
 30
0.0
 11
489.931
 21
284.001
 31
0.0
  0
LINE
  8
0
 62
     0
 10
489.931
 20
284.001
 30
0.0
 11
489.024
 21
283.336
 31
0.0
  0
LINE
  8
0
 62
     0
 10
489.024
 20
283.336
 30
0.0
 11
488.805
 21
283.177
 31
0.0
  0
LINE
  8
0
 62
     0
 10
488.805
 20
283.177
 30
0.0
 11
486.59
 21
281.603
 31
0.0
  0
LINE
  8
0
 62
     0
 10
486.59
 20
281.603
 30
0.0
 11
486.368
 21
281.448
 31
0.0
  0
LINE
  8
0
 62
     0
 10
486.368
 20
281.448
 30
0.0
 11
485.496
 21
280.834
 31
0.0
  0
LINE
  8
0
 62
     0
 10
485.496
 20
280.834
 30
0.0
 11
476.55
 21
275.042
 31
0.0
  0
LINE
  8
0
 62
     0
 10
476.55
 20
275.042
 30
0.0
 11
475.633
 21
274.498
 31
0.0
  0
LINE
  8
0
 62
     0
 10
475.633
 20
274.498
 30
0.0
 11
475.347
 21
274.332
 31
0.0
  0
LINE
  8
0
 62
     0
 10
475.347
 20
274.332
 30
0.0
 11
472.465
 21
272.69
 31
0.0
  0
LINE
  8
0
 62
     0
 10
472.465
 20
272.69
 30
0.0
 11
472.175
 21
272.529
 31
0.0
  0
LINE
  8
0
 62
     0
 10
472.175
 20
272.529
 30
0.0
 11
471.297
 21
272.037
 31
0.0
  0
LINE
  8
0
 62
     0
 10
471.297
 20
272.037
 30
0.0
 11
462.358
 21
267.44
 31
0.0
  0
LINE
  8
0
 62
     0
 10
462.358
 20
267.44
 30
0.0
 11
461.447
 21
267.013
 31
0.0
  0
LINE
  8
0
 62
     0
 10
461.447
 20
267.013
 30
0.0
 11
461.088
 21
266.847
 31
0.0
  0
LINE
  8
0
 62
     0
 10
461.088
 20
266.847
 30
0.0
 11
457.482
 21
265.246
 31
0.0
  0
LINE
  8
0
 62
     0
 10
457.482
 20
265.246
 30
0.0
 11
457.122
 21
265.091
 31
0.0
  0
LINE
  8
0
 62
     0
 10
457.122
 20
265.091
 30
0.0
 11
456.258
 21
264.716
 31
0.0
  0
LINE
  8
0
 62
     0
 10
456.258
 20
264.716
 30
0.0
 11
447.492
 21
261.262
 31
0.0
  0
LINE
  8
0
 62
     0
 10
447.492
 20
261.262
 30
0.0
 11
446.603
 21
260.947
 31
0.0
  0
LINE
  8
0
 62
     0
 10
446.603
 20
260.947
 30
0.0
 11
446.169
 21
260.795
 31
0.0
  0
LINE
  8
0
 62
     0
 10
446.169
 20
260.795
 30
0.0
 11
441.798
 21
259.354
 31
0.0
  0
LINE
  8
0
 62
     0
 10
441.798
 20
259.354
 30
0.0
 11
441.357
 21
259.216
 31
0.0
  0
LINE
  8
0
 62
     0
 10
441.357
 20
259.216
 30
0.0
 11
440.524
 21
258.951
 31
0.0
  0
LINE
  8
0
 62
     0
 10
440.524
 20
258.951
 30
0.0
 11
432.103
 21
256.566
 31
0.0
  0
LINE
  8
0
 62
     0
 10
432.103
 20
256.566
 30
0.0
 11
431.253
 21
256.354
 31
0.0
  0
LINE
  8
0
 62
     0
 10
431.253
 20
256.354
 30
0.0
 11
430.738
 21
256.23
 31
0.0
  0
LINE
  8
0
 62
     0
 10
430.738
 20
256.23
 30
0.0
 11
425.573
 21
255.079
 31
0.0
  0
LINE
  8
0
 62
     0
 10
425.573
 20
255.079
 30
0.0
 11
425.055
 21
254.973
 31
0.0
  0
LINE
  8
0
 62
     0
 10
425.055
 20
254.973
 30
0.0
 11
424.265
 21
254.809
 31
0.0
  0
LINE
  8
0
 62
     0
 10
424.265
 20
254.809
 30
0.0
 11
416.327
 21
253.391
 31
0.0
  0
LINE
  8
0
 62
     0
 10
416.327
 20
253.391
 30
0.0
 11
415.53
 21
253.273
 31
0.0
  0
LINE
  8
0
 62
     0
 10
415.53
 20
253.273
 30
0.0
 11
414.937
 21
253.188
 31
0.0
  0
LINE
  8
0
 62
     0
 10
414.937
 20
253.188
 30
0.0
 11
408.993
 21
252.472
 31
0.0
  0
LINE
  8
0
 62
     0
 10
408.993
 20
252.472
 30
0.0
 11
408.397
 21
252.413
 31
0.0
  0
LINE
  8
0
 62
     0
 10
408.397
 20
252.413
 30
0.0
 11
407.554
 21
252.321
 31
0.0
  0
LINE
  8
0
 62
     0
 10
407.554
 20
252.321
 30
0.0
 11
399.126
 21
251.668
 31
0.0
  0
LINE
  8
0
 62
     0
 10
399.126
 20
251.668
 30
0.0
 11
398.279
 21
251.628
 31
0.0
  0
LINE
  8
0
 62
     0
 10
398.279
 20
251.628
 30
0.0
 11
397.827
 21
251.605
 31
0.0
  0
LINE
  8
0
 62
     0
 10
397.827
 20
251.605
 30
0.0
 11
393.294
 21
251.447
 31
0.0
  0
LINE
  8
0
 62
     0
 10
393.294
 20
251.447
 30
0.0
 11
392.843
 21
251.437
 31
0.0
  0
LINE
  8
0
 62
     0
 10
392.843
 20
251.437
 30
0.0
 11
392.875
 21
255.958
 31
0.0
  0
LINE
  8
0
 62
     0
 10
392.875
 20
255.958
 30
0.0
 11
396.893
 21
256.982
 31
0.0
  0
LINE
  8
0
 62
     0
 10
396.893
 20
256.982
 30
0.0
 11
408.838
 21
260.503
 31
0.0
  0
LINE
  8
0
 62
     0
 10
408.838
 20
260.503
 30
0.0
 11
424.279
 21
265.859
 31
0.0
  0
LINE
  8
0
 62
     0
 10
424.279
 20
265.859
 30
0.0
 11
439.131
 21
271.985
 31
0.0
  0
LINE
  8
0
 62
     0
 10
439.131
 20
271.985
 30
0.0
 11
453.334
 21
278.835
 31
0.0
  0
LINE
  8
0
 62
     0
 10
453.334
 20
278.835
 30
0.0
 11
466.827
 21
286.37
 31
0.0
  0
LINE
  8
0
 62
     0
 10
466.827
 20
286.37
 30
0.0
 11
479.552
 21
294.546
 31
0.0
  0
LINE
  8
0
 62
     0
 10
479.552
 20
294.546
 30
0.0
 11
491.437
 21
303.32
 31
0.0
  0
LINE
  8
0
 62
     0
 10
491.437
 20
303.32
 30
0.0
 11
502.43
 21
312.648
 31
0.0
  0
LINE
  8
0
 62
     0
 10
502.43
 20
312.648
 30
0.0
 11
512.466
 21
322.489
 31
0.0
  0
LINE
  8
0
 62
     0
 10
512.466
 20
322.489
 30
0.0
 11
521.48
 21
332.799
 31
0.0
  0
LINE
  8
0
 62
     0
 10
521.48
 20
332.799
 30
0.0
 11
529.414
 21
343.535
 31
0.0
  0
LINE
  8
0
 62
     0
 10
529.414
 20
343.535
 30
0.0
 11
536.201
 21
354.655
 31
0.0
  0
LINE
  8
0
 62
     0
 10
536.201
 20
354.655
 30
0.0
 11
541.786
 21
366.12
 31
0.0
  0
LINE
  8
0
 62
     0
 10
541.786
 20
366.12
 30
0.0
 11
546.1
 21
377.878
 31
0.0
  0
LINE
  8
0
 62
     0
 10
546.1
 20
377.878
 30
0.0
 11
549.088
 21
389.894
 31
0.0
  0
LINE
  8
0
 62
     0
 10
549.088
 20
389.894
 30
0.0
 11
550.467
 21
399.055
 31
0.0
  0
LINE
  8
0
 62
     0
 10
550.467
 20
399.055
 30
0.0
 11
550.686
 21
402.124
 31
0.0
  0
LINE
  8
0
 62
     0
 10
414.189
 20
355.967
 30
0.0
 11
414.193
 21
355.709
 31
0.0
  0
LINE
  8
0
 62
     0
 10
414.193
 20
355.709
 30
0.0
 11
414.031
 21
354.937
 31
0.0
  0
LINE
  8
0
 62
     0
 10
414.031
 20
354.937
 30
0.0
 11
413.551
 21
353.31
 31
0.0
  0
LINE
  8
0
 62
     0
 10
413.551
 20
353.31
 30
0.0
 11
412.792
 21
351.181
 31
0.0
  0
LINE
  8
0
 62
     0
 10
412.792
 20
351.181
 30
0.0
 11
411.794
 21
348.637
 31
0.0
  0
LINE
  8
0
 62
     0
 10
411.794
 20
348.637
 30
0.0
 11
410.598
 21
345.769
 31
0.0
  0
LINE
  8
0
 62
     0
 10
410.598
 20
345.769
 30
0.0
 11
409.247
 21
342.67
 31
0.0
  0
LINE
  8
0
 62
     0
 10
409.247
 20
342.67
 30
0.0
 11
407.779
 21
339.43
 31
0.0
  0
LINE
  8
0
 62
     0
 10
407.779
 20
339.43
 30
0.0
 11
406.234
 21
336.141
 31
0.0
  0
LINE
  8
0
 62
     0
 10
406.234
 20
336.141
 30
0.0
 11
404.654
 21
332.893
 31
0.0
  0
LINE
  8
0
 62
     0
 10
404.654
 20
332.893
 30
0.0
 11
403.084
 21
329.777
 31
0.0
  0
LINE
  8
0
 62
     0
 10
403.084
 20
329.777
 30
0.0
 11
401.563
 21
326.885
 31
0.0
  0
LINE
  8
0
 62
     0
 10
401.563
 20
326.885
 30
0.0
 11
400.128
 21
324.308
 31
0.0
  0
LINE
  8
0
 62
     0
 10
400.128
 20
324.308
 30
0.0
 11
398.822
 21
322.136
 31
0.0
  0
LINE
  8
0
 62
     0
 10
398.822
 20
322.136
 30
0.0
 11
397.69
 21
320.46
 31
0.0
  0
LINE
  8
0
 62
     0
 10
397.69
 20
320.46
 30
0.0
 11
396.769
 21
319.374
 31
0.0
  0
LINE
  8
0
 62
     0
 10
396.769
 20
319.374
 30
0.0
 11
396.275
 21
318.977
 31
0.0
  0
LINE
  8
0
 62
     0
 10
396.275
 20
318.977
 30
0.0
 11
396.102
 21
318.965
 31
0.0
  0
LINE
  8
0
 62
     0
 10
396.102
 20
318.965
 30
0.0
 11
395.93
 21
318.954
 31
0.0
  0
LINE
  8
0
 62
     0
 10
395.93
 20
318.954
 30
0.0
 11
395.393
 21
319.331
 31
0.0
  0
LINE
  8
0
 62
     0
 10
395.393
 20
319.331
 30
0.0
 11
394.356
 21
320.439
 31
0.0
  0
LINE
  8
0
 62
     0
 10
394.356
 20
320.439
 30
0.0
 11
393.04
 21
322.188
 31
0.0
  0
LINE
  8
0
 62
     0
 10
393.04
 20
322.188
 30
0.0
 11
391.502
 21
324.477
 31
0.0
  0
LINE
  8
0
 62
     0
 10
391.502
 20
324.477
 30
0.0
 11
389.791
 21
327.206
 31
0.0
  0
LINE
  8
0
 62
     0
 10
389.791
 20
327.206
 30
0.0
 11
387.96
 21
330.273
 31
0.0
  0
LINE
  8
0
 62
     0
 10
387.96
 20
330.273
 30
0.0
 11
386.059
 21
333.58
 31
0.0
  0
LINE
  8
0
 62
     0
 10
386.059
 20
333.58
 30
0.0
 11
384.143
 21
337.024
 31
0.0
  0
LINE
  8
0
 62
     0
 10
384.143
 20
337.024
 30
0.0
 11
382.259
 21
340.506
 31
0.0
  0
LINE
  8
0
 62
     0
 10
382.259
 20
340.506
 30
0.0
 11
380.464
 21
343.925
 31
0.0
  0
LINE
  8
0
 62
     0
 10
380.464
 20
343.925
 30
0.0
 11
378.809
 21
347.182
 31
0.0
  0
LINE
  8
0
 62
     0
 10
378.809
 20
347.182
 30
0.0
 11
377.342
 21
350.172
 31
0.0
  0
LINE
  8
0
 62
     0
 10
377.342
 20
350.172
 30
0.0
 11
376.114
 21
352.799
 31
0.0
  0
LINE
  8
0
 62
     0
 10
376.114
 20
352.799
 30
0.0
 11
375.186
 21
354.958
 31
0.0
  0
LINE
  8
0
 62
     0
 10
375.186
 20
354.958
 30
0.0
 11
374.601
 21
356.556
 31
0.0
  0
LINE
  8
0
 62
     0
 10
374.601
 20
356.556
 30
0.0
 11
374.4
 21
357.255
 31
0.0
  0
LINE
  8
0
 62
     0
 10
374.4
 20
357.255
 30
0.0
 11
374.414
 21
357.484
 31
0.0
  0
LINE
  8
0
 62
     0
 10
374.414
 20
357.484
 30
0.0
 11
374.424
 21
357.703
 31
0.0
  0
LINE
  8
0
 62
     0
 10
374.424
 20
357.703
 30
0.0
 11
374.608
 21
358.359
 31
0.0
  0
LINE
  8
0
 62
     0
 10
374.608
 20
358.359
 30
0.0
 11
375.116
 21
359.784
 31
0.0
  0
LINE
  8
0
 62
     0
 10
375.116
 20
359.784
 30
0.0
 11
375.934
 21
361.692
 31
0.0
  0
LINE
  8
0
 62
     0
 10
375.934
 20
361.692
 30
0.0
 11
377.045
 21
364.007
 31
0.0
  0
LINE
  8
0
 62
     0
 10
377.045
 20
364.007
 30
0.0
 11
378.439
 21
366.663
 31
0.0
  0
LINE
  8
0
 62
     0
 10
378.439
 20
366.663
 30
0.0
 11
380.1
 21
369.588
 31
0.0
  0
LINE
  8
0
 62
     0
 10
380.1
 20
369.588
 30
0.0
 11
382.016
 21
372.71
 31
0.0
  0
LINE
  8
0
 62
     0
 10
382.016
 20
372.71
 30
0.0
 11
383.625
 21
375.154
 31
0.0
  0
LINE
  8
0
 62
     0
 10
383.625
 20
375.154
 30
0.0
 11
384.179
 21
375.955
 31
0.0
  0
LINE
  8
0
 62
     0
 10
384.179
 20
375.955
 30
0.0
 11
384.718
 21
376.735
 31
0.0
  0
LINE
  8
0
 62
     0
 10
384.718
 20
376.735
 30
0.0
 11
386.292
 21
379.102
 31
0.0
  0
LINE
  8
0
 62
     0
 10
386.292
 20
379.102
 30
0.0
 11
388.281
 21
382.21
 31
0.0
  0
LINE
  8
0
 62
     0
 10
388.281
 20
382.21
 30
0.0
 11
390.116
 21
385.163
 31
0.0
  0
LINE
  8
0
 62
     0
 10
390.116
 20
385.163
 30
0.0
 11
391.753
 21
387.844
 31
0.0
  0
LINE
  8
0
 62
     0
 10
391.753
 20
387.844
 30
0.0
 11
393.164
 21
390.14
 31
0.0
  0
LINE
  8
0
 62
     0
 10
393.164
 20
390.14
 30
0.0
 11
394.31
 21
391.929
 31
0.0
  0
LINE
  8
0
 62
     0
 10
394.31
 20
391.929
 30
0.0
 11
395.153
 21
393.097
 31
0.0
  0
LINE
  8
0
 62
     0
 10
395.153
 20
393.097
 30
0.0
 11
395.531
 21
393.517
 31
0.0
  0
LINE
  8
0
 62
     0
 10
395.531
 20
393.517
 30
0.0
 11
395.665
 21
393.524
 31
0.0
  0
LINE
  8
0
 62
     0
 10
395.665
 20
393.524
 30
0.0
 11
395.778
 21
393.531
 31
0.0
  0
LINE
  8
0
 62
     0
 10
395.778
 20
393.531
 30
0.0
 11
396.141
 21
393.146
 31
0.0
  0
LINE
  8
0
 62
     0
 10
396.141
 20
393.146
 30
0.0
 11
396.857
 21
392.045
 31
0.0
  0
LINE
  8
0
 62
     0
 10
396.857
 20
392.045
 30
0.0
 11
397.799
 21
390.32
 31
0.0
  0
LINE
  8
0
 62
     0
 10
397.799
 20
390.32
 30
0.0
 11
398.953
 21
388.066
 31
0.0
  0
LINE
  8
0
 62
     0
 10
398.953
 20
388.066
 30
0.0
 11
400.304
 21
385.385
 31
0.0
  0
LINE
  8
0
 62
     0
 10
400.304
 20
385.385
 30
0.0
 11
401.842
 21
382.372
 31
0.0
  0
LINE
  8
0
 62
     0
 10
401.842
 20
382.372
 30
0.0
 11
403.553
 21
379.13
 31
0.0
  0
LINE
  8
0
 62
     0
 10
403.553
 20
379.13
 30
0.0
 11
404.943
 21
376.59
 31
0.0
  0
LINE
  8
0
 62
     0
 10
404.943
 20
376.59
 30
0.0
 11
405.419
 21
375.754
 31
0.0
  0
LINE
  8
0
 62
     0
 10
405.419
 20
375.754
 30
0.0
 11
405.867
 21
374.968
 31
0.0
  0
LINE
  8
0
 62
     0
 10
405.867
 20
374.968
 30
0.0
 11
407.158
 21
372.583
 31
0.0
  0
LINE
  8
0
 62
     0
 10
407.158
 20
372.583
 30
0.0
 11
408.788
 21
369.397
 31
0.0
  0
LINE
  8
0
 62
     0
 10
408.788
 20
369.397
 30
0.0
 11
410.27
 21
366.3
 31
0.0
  0
LINE
  8
0
 62
     0
 10
410.27
 20
366.3
 30
0.0
 11
411.568
 21
363.403
 31
0.0
  0
LINE
  8
0
 62
     0
 10
411.568
 20
363.403
 30
0.0
 11
412.648
 21
360.814
 31
0.0
  0
LINE
  8
0
 62
     0
 10
412.648
 20
360.814
 30
0.0
 11
413.47
 21
358.641
 31
0.0
  0
LINE
  8
0
 62
     0
 10
413.47
 20
358.641
 30
0.0
 11
413.995
 21
356.986
 31
0.0
  0
LINE
  8
0
 62
     0
 10
413.995
 20
356.986
 30
0.0
 11
414.182
 21
356.221
 31
0.0
  0
LINE
  8
0
 62
     0
 10
414.182
 20
356.221
 30
0.0
 11
414.189
 21
355.967
 31
0.0
  0
LINE
  8
0
 62
     0
 10
718.1
 20
315.24
 30
0.0
 11
718.749
 21
315.918
 31
0.0
  0
LINE
  8
0
 62
     0
 10
718.749
 20
315.918
 30
0.0
 11
720.457
 21
318.179
 31
0.0
  0
LINE
  8
0
 62
     0
 10
720.457
 20
318.179
 30
0.0
 11
723.06
 21
321.693
 31
0.0
  0
LINE
  8
0
 62
     0
 10
723.06
 20
321.693
 30
0.0
 11
726.158
 21
325.108
 31
0.0
  0
LINE
  8
0
 62
     0
 10
726.158
 20
325.108
 30
0.0
 11
728.966
 21
327.256
 31
0.0
  0
LINE
  8
0
 62
     0
 10
728.966
 20
327.256
 30
0.0
 11
730.01
 21
327.746
 31
0.0
  0
LINE
  8
0
 62
     0
 10
730.01
 20
327.746
 30
0.0
 11
730.98
 21
328.2
 31
0.0
  0
LINE
  8
0
 62
     0
 10
730.98
 20
328.2
 30
0.0
 11
734.004
 21
329.317
 31
0.0
  0
LINE
  8
0
 62
     0
 10
734.004
 20
329.317
 30
0.0
 11
737.51
 21
330.223
 31
0.0
  0
LINE
  8
0
 62
     0
 10
737.51
 20
330.223
 30
0.0
 11
740.749
 21
330.84
 31
0.0
  0
LINE
  8
0
 62
     0
 10
740.749
 20
330.84
 30
0.0
 11
743.155
 21
331.325
 31
0.0
  0
LINE
  8
0
 62
     0
 10
743.155
 20
331.325
 30
0.0
 11
743.945
 21
331.532
 31
0.0
  0
LINE
  8
0
 62
     0
 10
743.945
 20
331.532
 30
0.0
 11
744.686
 21
331.728
 31
0.0
  0
LINE
  8
0
 62
     0
 10
744.686
 20
331.728
 30
0.0
 11
746.908
 21
332.318
 31
0.0
  0
LINE
  8
0
 62
     0
 10
746.908
 20
332.318
 30
0.0
 11
749.893
 21
333.116
 31
0.0
  0
LINE
  8
0
 62
     0
 10
749.893
 20
333.116
 30
0.0
 11
752.546
 21
333.834
 31
0.0
  0
LINE
  8
0
 62
     0
 10
752.546
 20
333.834
 30
0.0
 11
754.034
 21
334.24
 31
0.0
  0
LINE
  8
0
 62
     0
 10
754.034
 20
334.24
 30
0.0
 11
754.528
 21
334.378
 31
0.0
  0
LINE
  8
0
 62
     0
 10
754.528
 20
334.378
 30
0.0
 11
755.689
 21
334.702
 31
0.0
  0
LINE
  8
0
 62
     0
 10
755.689
 20
334.702
 30
0.0
 11
759.192
 21
335.589
 31
0.0
  0
LINE
  8
0
 62
     0
 10
759.192
 20
335.589
 30
0.0
 11
762.871
 21
336.405
 31
0.0
  0
LINE
  8
0
 62
     0
 10
762.871
 20
336.405
 30
0.0
 11
766.417
 21
337.16
 31
0.0
  0
LINE
  8
0
 62
     0
 10
766.417
 20
337.16
 30
0.0
 11
769.609
 21
337.911
 31
0.0
  0
LINE
  8
0
 62
     0
 10
769.609
 20
337.911
 30
0.0
 11
770.668
 21
338.187
 31
0.0
  0
LINE
  8
0
 62
     0
 10
770.668
 20
338.187
 30
0.0
 11
771.871
 21
338.501
 31
0.0
  0
LINE
  8
0
 62
     0
 10
771.871
 20
338.501
 30
0.0
 11
778.196
 21
340.731
 31
0.0
  0
LINE
  8
0
 62
     0
 10
778.196
 20
340.731
 30
0.0
 11
784.955
 21
343.956
 31
0.0
  0
LINE
  8
0
 62
     0
 10
784.955
 20
343.956
 30
0.0
 11
786.373
 21
344.767
 31
0.0
  0
LINE
  8
0
 62
     0
 10
786.373
 20
344.767
 30
0.0
 11
786.719
 21
344.926
 31
0.0
  0
LINE
  8
0
 62
     0
 10
786.719
 20
344.926
 30
0.0
 11
786.709
 21
344.866
 31
0.0
  0
LINE
  8
0
 62
     0
 10
786.709
 20
344.866
 30
0.0
 11
786.666
 21
344.435
 31
0.0
  0
LINE
  8
0
 62
     0
 10
786.666
 20
344.435
 30
0.0
 11
786.624
 21
344.004
 31
0.0
  0
LINE
  8
0
 62
     0
 10
786.624
 20
344.004
 30
0.0
 11
786.617
 21
343.943
 31
0.0
  0
LINE
  8
0
 62
     0
 10
786.617
 20
343.943
 30
0.0
 11
786.776
 21
343.439
 31
0.0
  0
LINE
  8
0
 62
     0
 10
786.776
 20
343.439
 30
0.0
 11
786.92
 21
341.811
 31
0.0
  0
LINE
  8
0
 62
     0
 10
786.92
 20
341.811
 30
0.0
 11
786.807
 21
338.872
 31
0.0
  0
LINE
  8
0
 62
     0
 10
786.807
 20
338.872
 30
0.0
 11
786.342
 21
335.32
 31
0.0
  0
LINE
  8
0
 62
     0
 10
786.342
 20
335.32
 30
0.0
 11
785.583
 21
331.344
 31
0.0
  0
LINE
  8
0
 62
     0
 10
785.583
 20
331.344
 30
0.0
 11
784.599
 21
327.135
 31
0.0
  0
LINE
  8
0
 62
     0
 10
784.599
 20
327.135
 30
0.0
 11
783.449
 21
322.887
 31
0.0
  0
LINE
  8
0
 62
     0
 10
783.449
 20
322.887
 30
0.0
 11
782.197
 21
318.788
 31
0.0
  0
LINE
  8
0
 62
     0
 10
782.197
 20
318.788
 30
0.0
 11
781.248
 21
315.965
 31
0.0
  0
LINE
  8
0
 62
     0
 10
781.248
 20
315.965
 30
0.0
 11
780.909
 21
315.032
 31
0.0
  0
LINE
  8
0
 62
     0
 10
780.909
 20
315.032
 30
0.0
 11
780.824
 21
314.745
 31
0.0
  0
LINE
  8
0
 62
     0
 10
780.824
 20
314.745
 30
0.0
 11
780.281
 21
313.232
 31
0.0
  0
LINE
  8
0
 62
     0
 10
780.281
 20
313.232
 30
0.0
 11
779.681
 21
311.861
 31
0.0
  0
LINE
  8
0
 62
     0
 10
779.681
 20
311.861
 30
0.0
 11
779.568
 21
311.643
 31
0.0
  0
LINE
  8
0
 62
     0
 10
779.568
 20
311.643
 30
0.0
 11
779.487
 21
311.483
 31
0.0
  0
LINE
  8
0
 62
     0
 10
779.487
 20
311.483
 30
0.0
 11
779.142
 21
311.051
 31
0.0
  0
LINE
  8
0
 62
     0
 10
779.142
 20
311.051
 30
0.0
 11
778.27
 21
310.002
 31
0.0
  0
LINE
  8
0
 62
     0
 10
778.27
 20
310.002
 30
0.0
 11
777.064
 21
308.62
 31
0.0
  0
LINE
  8
0
 62
     0
 10
777.064
 20
308.62
 30
0.0
 11
775.628
 21
307.024
 31
0.0
  0
LINE
  8
0
 62
     0
 10
775.628
 20
307.024
 30
0.0
 11
774.072
 21
305.337
 31
0.0
  0
LINE
  8
0
 62
     0
 10
774.072
 20
305.337
 30
0.0
 11
772.509
 21
303.68
 31
0.0
  0
LINE
  8
0
 62
     0
 10
772.509
 20
303.68
 30
0.0
 11
771.049
 21
302.172
 31
0.0
  0
LINE
  8
0
 62
     0
 10
771.049
 20
302.172
 30
0.0
 11
770.117
 21
301.239
 31
0.0
  0
LINE
  8
0
 62
     0
 10
770.117
 20
301.239
 30
0.0
 11
769.8
 21
300.936
 31
0.0
  0
LINE
  8
0
 62
     0
 10
769.8
 20
300.936
 30
0.0
 11
769.048
 21
300.218
 31
0.0
  0
LINE
  8
0
 62
     0
 10
769.048
 20
300.218
 30
0.0
 11
766.671
 21
298.191
 31
0.0
  0
LINE
  8
0
 62
     0
 10
766.671
 20
298.191
 30
0.0
 11
763.732
 21
295.941
 31
0.0
  0
LINE
  8
0
 62
     0
 10
763.732
 20
295.941
 30
0.0
 11
761.39
 21
294.312
 31
0.0
  0
LINE
  8
0
 62
     0
 10
761.39
 20
294.312
 30
0.0
 11
760.289
 21
293.587
 31
0.0
  0
LINE
  8
0
 62
     0
 10
760.289
 20
293.587
 30
0.0
 11
760.06
 21
293.432
 31
0.0
  0
LINE
  8
0
 62
     0
 10
760.06
 20
293.432
 30
0.0
 11
759.943
 21
293.356
 31
0.0
  0
LINE
  8
0
 62
     0
 10
759.943
 20
293.356
 30
0.0
 11
759.513
 21
293.067
 31
0.0
  0
LINE
  8
0
 62
     0
 10
759.513
 20
293.067
 30
0.0
 11
758.659
 21
292.493
 31
0.0
  0
LINE
  8
0
 62
     0
 10
758.659
 20
292.493
 30
0.0
 11
757.608
 21
291.788
 31
0.0
  0
LINE
  8
0
 62
     0
 10
757.608
 20
291.788
 30
0.0
 11
756.761
 21
291.221
 31
0.0
  0
LINE
  8
0
 62
     0
 10
756.761
 20
291.221
 30
0.0
 11
756.479
 21
291.032
 31
0.0
  0
LINE
  8
0
 62
     0
 10
756.479
 20
291.032
 30
0.0
 11
756.144
 21
290.807
 31
0.0
  0
LINE
  8
0
 62
     0
 10
756.144
 20
290.807
 30
0.0
 11
755.107
 21
290.167
 31
0.0
  0
LINE
  8
0
 62
     0
 10
755.107
 20
290.167
 30
0.0
 11
753.396
 21
289.163
 31
0.0
  0
LINE
  8
0
 62
     0
 10
753.396
 20
289.163
 30
0.0
 11
751.558
 21
288.146
 31
0.0
  0
LINE
  8
0
 62
     0
 10
751.558
 20
288.146
 30
0.0
 11
750.252
 21
287.459
 31
0.0
  0
LINE
  8
0
 62
     0
 10
750.252
 20
287.459
 30
0.0
 11
749.815
 21
287.24
 31
0.0
  0
LINE
  8
0
 62
     0
 10
749.815
 20
287.24
 30
0.0
 11
749.737
 21
287.202
 31
0.0
  0
LINE
  8
0
 62
     0
 10
749.737
 20
287.202
 30
0.0
 11
749.007
 21
286.826
 31
0.0
  0
LINE
  8
0
 62
     0
 10
749.007
 20
286.826
 30
0.0
 11
748.937
 21
286.789
 31
0.0
  0
LINE
  8
0
 62
     0
 10
748.937
 20
286.789
 30
0.0
 11
748.919
 21
286.779
 31
0.0
  0
LINE
  8
0
 62
     0
 10
748.919
 20
286.779
 30
0.0
 11
748.739
 21
286.684
 31
0.0
  0
LINE
  8
0
 62
     0
 10
748.739
 20
286.684
 30
0.0
 11
748.721
 21
286.675
 31
0.0
  0
LINE
  8
0
 62
     0
 10
748.721
 20
286.675
 30
0.0
 11
748.721
 21
286.675
 31
0.0
  0
LINE
  8
0
 62
     0
 10
748.721
 20
286.675
 30
0.0
 11
748.697
 21
286.661
 31
0.0
  0
LINE
  8
0
 62
     0
 10
748.697
 20
286.661
 30
0.0
 11
748.693
 21
286.659
 31
0.0
  0
LINE
  8
0
 62
     0
 10
748.693
 20
286.659
 30
0.0
 11
748.171
 21
286.383
 31
0.0
  0
LINE
  8
0
 62
     0
 10
748.171
 20
286.383
 30
0.0
 11
745.956
 21
285.029
 31
0.0
  0
LINE
  8
0
 62
     0
 10
745.956
 20
285.029
 30
0.0
 11
744.224
 21
283.695
 31
0.0
  0
LINE
  8
0
 62
     0
 10
744.224
 20
283.695
 30
0.0
 11
743.941
 21
283.427
 31
0.0
  0
LINE
  8
0
 62
     0
 10
743.941
 20
283.427
 30
0.0
 11
743.243
 21
282.7
 31
0.0
  0
LINE
  8
0
 62
     0
 10
743.243
 20
282.7
 30
0.0
 11
740.914
 21
280.744
 31
0.0
  0
LINE
  8
0
 62
     0
 10
740.914
 20
280.744
 30
0.0
 11
737.817
 21
278.739
 31
0.0
  0
LINE
  8
0
 62
     0
 10
737.817
 20
278.739
 30
0.0
 11
734.579
 21
277.053
 31
0.0
  0
LINE
  8
0
 62
     0
 10
734.579
 20
277.053
 30
0.0
 11
731.975
 21
275.775
 31
0.0
  0
LINE
  8
0
 62
     0
 10
731.975
 20
275.775
 30
0.0
 11
731.118
 21
275.331
 31
0.0
  0
LINE
  8
0
 62
     0
 10
731.118
 20
275.331
 30
0.0
 11
730.529
 21
275.071
 31
0.0
  0
LINE
  8
0
 62
     0
 10
730.529
 20
275.071
 30
0.0
 11
728.645
 21
274.534
 31
0.0
  0
LINE
  8
0
 62
     0
 10
728.645
 20
274.534
 30
0.0
 11
726.172
 21
274.235
 31
0.0
  0
LINE
  8
0
 62
     0
 10
726.172
 20
274.235
 30
0.0
 11
723.727
 21
274.33
 31
0.0
  0
LINE
  8
0
 62
     0
 10
723.727
 20
274.33
 30
0.0
 11
721.349
 21
274.718
 31
0.0
  0
LINE
  8
0
 62
     0
 10
721.349
 20
274.718
 30
0.0
 11
719.07
 21
275.295
 31
0.0
  0
LINE
  8
0
 62
     0
 10
719.07
 20
275.295
 30
0.0
 11
716.929
 21
275.959
 31
0.0
  0
LINE
  8
0
 62
     0
 10
716.929
 20
275.959
 30
0.0
 11
714.961
 21
276.608
 31
0.0
  0
LINE
  8
0
 62
     0
 10
714.961
 20
276.608
 30
0.0
 11
713.641
 21
277.022
 31
0.0
  0
LINE
  8
0
 62
     0
 10
713.641
 20
277.022
 30
0.0
 11
713.197
 21
277.139
 31
0.0
  0
LINE
  8
0
 62
     0
 10
713.197
 20
277.139
 30
0.0
 11
697.353
 21
283.112
 31
0.0
  0
LINE
  8
0
 62
     0
 10
697.353
 20
283.112
 30
0.0
 11
697.353
 21
283.112
 31
0.0
  0
LINE
  8
0
 62
     0
 10
697.353
 20
283.112
 30
0.0
 11
697.692
 21
283.64
 31
0.0
  0
LINE
  8
0
 62
     0
 10
697.692
 20
283.64
 30
0.0
 11
698.599
 21
285.053
 31
0.0
  0
LINE
  8
0
 62
     0
 10
698.599
 20
285.053
 30
0.0
 11
699.897
 21
287.092
 31
0.0
  0
LINE
  8
0
 62
     0
 10
699.897
 20
287.092
 30
0.0
 11
701.41
 21
289.501
 31
0.0
  0
LINE
  8
0
 62
     0
 10
701.41
 20
289.501
 30
0.0
 11
702.963
 21
292.026
 31
0.0
  0
LINE
  8
0
 62
     0
 10
702.963
 20
292.026
 30
0.0
 11
704.384
 21
294.407
 31
0.0
  0
LINE
  8
0
 62
     0
 10
704.384
 20
294.407
 30
0.0
 11
705.492
 21
296.388
 31
0.0
  0
LINE
  8
0
 62
     0
 10
705.492
 20
296.388
 30
0.0
 11
705.993
 21
297.37
 31
0.0
  0
LINE
  8
0
 62
     0
 10
705.993
 20
297.37
 30
0.0
 11
706.116
 21
297.713
 31
0.0
  0
LINE
  8
0
 62
     0
 10
706.116
 20
297.713
 30
0.0
 11
706.536
 21
298.347
 31
0.0
  0
LINE
  8
0
 62
     0
 10
706.536
 20
298.347
 30
0.0
 11
707.813
 21
300.241
 31
0.0
  0
LINE
  8
0
 62
     0
 10
707.813
 20
300.241
 30
0.0
 11
709.56
 21
302.806
 31
0.0
  0
LINE
  8
0
 62
     0
 10
709.56
 20
302.806
 30
0.0
 11
711.302
 21
305.339
 31
0.0
  0
LINE
  8
0
 62
     0
 10
711.302
 20
305.339
 30
0.0
 11
712.985
 21
307.775
 31
0.0
  0
LINE
  8
0
 62
     0
 10
712.985
 20
307.775
 30
0.0
 11
714.558
 21
310.049
 31
0.0
  0
LINE
  8
0
 62
     0
 10
714.558
 20
310.049
 30
0.0
 11
715.973
 21
312.095
 31
0.0
  0
LINE
  8
0
 62
     0
 10
715.973
 20
312.095
 30
0.0
 11
717.169
 21
313.847
 31
0.0
  0
LINE
  8
0
 62
     0
 10
717.169
 20
313.847
 30
0.0
 11
717.871
 21
314.89
 31
0.0
  0
LINE
  8
0
 62
     0
 10
717.871
 20
314.89
 30
0.0
 11
718.1
 21
315.24
 31
0.0
  0
LINE
  8
0
 62
     0
 10
695.822
 20
280.13
 30
0.0
 11
695.822
 21
280.13
 31
0.0
  0
LINE
  8
0
 62
     0
 10
695.822
 20
280.13
 30
0.0
 11
695.893
 21
280.247
 31
0.0
  0
LINE
  8
0
 62
     0
 10
695.893
 20
280.247
 30
0.0
 11
696.143
 21
280.446
 31
0.0
  0
LINE
  8
0
 62
     0
 10
696.143
 20
280.446
 30
0.0
 11
696.62
 21
280.495
 31
0.0
  0
LINE
  8
0
 62
     0
 10
696.62
 20
280.495
 30
0.0
 11
697.198
 21
280.276
 31
0.0
  0
LINE
  8
0
 62
     0
 10
697.198
 20
280.276
 30
0.0
 11
697.368
 21
280.165
 31
0.0
  0
LINE
  8
0
 62
     0
 10
697.368
 20
280.165
 30
0.0
 11
697.805
 21
279.86
 31
0.0
  0
LINE
  8
0
 62
     0
 10
697.805
 20
279.86
 30
0.0
 11
699.89
 21
278.209
 31
0.0
  0
LINE
  8
0
 62
     0
 10
699.89
 20
278.209
 30
0.0
 11
701.767
 21
276.509
 31
0.0
  0
LINE
  8
0
 62
     0
 10
701.767
 20
276.509
 30
0.0
 11
702.102
 21
276.178
 31
0.0
  0
LINE
  8
0
 62
     0
 10
702.102
 20
276.178
 30
0.0
 11
702.363
 21
275.919
 31
0.0
  0
LINE
  8
0
 62
     0
 10
702.363
 20
275.919
 30
0.0
 11
703.136
 21
275.125
 31
0.0
  0
LINE
  8
0
 62
     0
 10
703.136
 20
275.125
 30
0.0
 11
704.025
 21
274.179
 31
0.0
  0
LINE
  8
0
 62
     0
 10
704.025
 20
274.179
 30
0.0
 11
704.723
 21
273.403
 31
0.0
  0
LINE
  8
0
 62
     0
 10
704.723
 20
273.403
 30
0.0
 11
705.076
 21
272.998
 31
0.0
  0
LINE
  8
0
 62
     0
 10
705.076
 20
272.998
 30
0.0
 11
705.189
 21
272.864
 31
0.0
  0
LINE
  8
0
 62
     0
 10
705.189
 20
272.864
 30
0.0
 11
705.28
 21
272.754
 31
0.0
  0
LINE
  8
0
 62
     0
 10
705.28
 20
272.754
 30
0.0
 11
706.187
 21
271.632
 31
0.0
  0
LINE
  8
0
 62
     0
 10
706.187
 20
271.632
 30
0.0
 11
706.279
 21
271.518
 31
0.0
  0
LINE
  8
0
 62
     0
 10
706.279
 20
271.518
 30
0.0
 11
706.346
 21
271.431
 31
0.0
  0
LINE
  8
0
 62
     0
 10
706.346
 20
271.431
 30
0.0
 11
707.03
 21
270.546
 31
0.0
  0
LINE
  8
0
 62
     0
 10
707.03
 20
270.546
 30
0.0
 11
707.101
 21
270.456
 31
0.0
  0
LINE
  8
0
 62
     0
 10
707.101
 20
270.456
 30
0.0
 11
707.566
 21
269.843
 31
0.0
  0
LINE
  8
0
 62
     0
 10
707.566
 20
269.843
 30
0.0
 11
709.732
 21
266.765
 31
0.0
  0
LINE
  8
0
 62
     0
 10
709.732
 20
266.765
 30
0.0
 11
711.585
 21
263.819
 31
0.0
  0
LINE
  8
0
 62
     0
 10
711.585
 20
263.819
 30
0.0
 11
711.895
 21
263.271
 31
0.0
  0
LINE
  8
0
 62
     0
 10
711.895
 20
263.271
 30
0.0
 11
711.927
 21
263.215
 31
0.0
  0
LINE
  8
0
 62
     0
 10
711.927
 20
263.215
 30
0.0
 11
712.241
 21
262.65
 31
0.0
  0
LINE
  8
0
 62
     0
 10
712.241
 20
262.65
 30
0.0
 11
712.272
 21
262.593
 31
0.0
  0
LINE
  8
0
 62
     0
 10
712.272
 20
262.593
 30
0.0
 11
712.272
 21
262.592
 31
0.0
  0
LINE
  8
0
 62
     0
 10
712.272
 20
262.592
 30
0.0
 11
712.28
 21
262.578
 31
0.0
  0
LINE
  8
0
 62
     0
 10
712.28
 20
262.578
 30
0.0
 11
712.28
 21
262.577
 31
0.0
  0
LINE
  8
0
 62
     0
 10
712.28
 20
262.577
 30
0.0
 11
712.297
 21
262.545
 31
0.0
  0
LINE
  8
0
 62
     0
 10
712.297
 20
262.545
 30
0.0
 11
712.459
 21
262.235
 31
0.0
  0
LINE
  8
0
 62
     0
 10
712.459
 20
262.235
 30
0.0
 11
712.477
 21
262.204
 31
0.0
  0
LINE
  8
0
 62
     0
 10
712.477
 20
262.204
 30
0.0
 11
712.632
 21
261.909
 31
0.0
  0
LINE
  8
0
 62
     0
 10
712.632
 20
261.909
 30
0.0
 11
713.274
 21
260.547
 31
0.0
  0
LINE
  8
0
 62
     0
 10
713.274
 20
260.547
 30
0.0
 11
713.726
 21
259.373
 31
0.0
  0
LINE
  8
0
 62
     0
 10
713.726
 20
259.373
 30
0.0
 11
713.782
 21
259.17
 31
0.0
  0
LINE
  8
0
 62
     0
 10
713.782
 20
259.17
 30
0.0
 11
713.825
 21
259.019
 31
0.0
  0
LINE
  8
0
 62
     0
 10
713.825
 20
259.019
 30
0.0
 11
714.11
 21
258.403
 31
0.0
  0
LINE
  8
0
 62
     0
 10
714.11
 20
258.403
 30
0.0
 11
714.791
 21
257.095
 31
0.0
  0
LINE
  8
0
 62
     0
 10
714.791
 20
257.095
 30
0.0
 11
715.754
 21
255.367
 31
0.0
  0
LINE
  8
0
 62
     0
 10
715.754
 20
255.367
 30
0.0
 11
716.633
 21
253.844
 31
0.0
  0
LINE
  8
0
 62
     0
 10
716.633
 20
253.844
 30
0.0
 11
716.933
 21
253.34
 31
0.0
  0
LINE
  8
0
 62
     0
 10
716.933
 20
253.34
 30
0.0
 11
717.049
 21
253.14
 31
0.0
  0
LINE
  8
0
 62
     0
 10
717.049
 20
253.14
 30
0.0
 11
718.287
 21
251.07
 31
0.0
  0
LINE
  8
0
 62
     0
 10
718.287
 20
251.07
 30
0.0
 11
718.418
 21
250.857
 31
0.0
  0
LINE
  8
0
 62
     0
 10
718.418
 20
250.857
 30
0.0
 11
718.421
 21
250.851
 31
0.0
  0
LINE
  8
0
 62
     0
 10
718.421
 20
250.851
 30
0.0
 11
718.457
 21
250.796
 31
0.0
  0
LINE
  8
0
 62
     0
 10
718.457
 20
250.796
 30
0.0
 11
718.46
 21
250.79
 31
0.0
  0
LINE
  8
0
 62
     0
 10
718.46
 20
250.79
 30
0.0
 11
718.545
 21
250.651
 31
0.0
  0
LINE
  8
0
 62
     0
 10
718.545
 20
250.651
 30
0.0
 11
719.406
 21
249.256
 31
0.0
  0
LINE
  8
0
 62
     0
 10
719.406
 20
249.256
 30
0.0
 11
719.494
 21
249.116
 31
0.0
  0
LINE
  8
0
 62
     0
 10
719.494
 20
249.116
 30
0.0
 11
719.653
 21
248.864
 31
0.0
  0
LINE
  8
0
 62
     0
 10
719.653
 20
248.864
 30
0.0
 11
720.125
 21
248.103
 31
0.0
  0
LINE
  8
0
 62
     0
 10
720.125
 20
248.103
 30
0.0
 11
720.707
 21
247.166
 31
0.0
  0
LINE
  8
0
 62
     0
 10
720.707
 20
247.166
 30
0.0
 11
721.17
 21
246.411
 31
0.0
  0
LINE
  8
0
 62
     0
 10
721.17
 20
246.411
 30
0.0
 11
721.395
 21
246.039
 31
0.0
  0
LINE
  8
0
 62
     0
 10
721.395
 20
246.039
 30
0.0
 11
721.452
 21
245.941
 31
0.0
  0
LINE
  8
0
 62
     0
 10
721.452
 20
245.941
 30
0.0
 11
721.508
 21
245.845
 31
0.0
  0
LINE
  8
0
 62
     0
 10
721.508
 20
245.845
 30
0.0
 11
721.967
 21
245.081
 31
0.0
  0
LINE
  8
0
 62
     0
 10
721.967
 20
245.081
 30
0.0
 11
722.514
 21
244.172
 31
0.0
  0
LINE
  8
0
 62
     0
 10
722.514
 20
244.172
 30
0.0
 11
722.619
 21
244.001
 31
0.0
  0
LINE
  8
0
 62
     0
 10
722.619
 20
244.001
 30
0.0
 11
722.884
 21
243.566
 31
0.0
  0
LINE
  8
0
 62
     0
 10
722.884
 20
243.566
 30
0.0
 11
723.526
 21
242.163
 31
0.0
  0
LINE
  8
0
 62
     0
 10
723.526
 20
242.163
 30
0.0
 11
724.496
 21
239.661
 31
0.0
  0
LINE
  8
0
 62
     0
 10
724.496
 20
239.661
 30
0.0
 11
725.382
 21
236.932
 31
0.0
  0
LINE
  8
0
 62
     0
 10
725.382
 20
236.932
 30
0.0
 11
725.89
 21
235.045
 31
0.0
  0
LINE
  8
0
 62
     0
 10
725.89
 20
235.045
 30
0.0
 11
726.024
 21
234.408
 31
0.0
  0
LINE
  8
0
 62
     0
 10
726.024
 20
234.408
 30
0.0
 11
726.034
 21
234.359
 31
0.0
  0
LINE
  8
0
 62
     0
 10
726.034
 20
234.359
 30
0.0
 11
726.13
 21
233.872
 31
0.0
  0
LINE
  8
0
 62
     0
 10
726.13
 20
233.872
 30
0.0
 11
726.137
 21
233.826
 31
0.0
  0
LINE
  8
0
 62
     0
 10
726.137
 20
233.826
 30
0.0
 11
726.246
 21
233.206
 31
0.0
  0
LINE
  8
0
 62
     0
 10
726.246
 20
233.206
 30
0.0
 11
726.377
 21
231.307
 31
0.0
  0
LINE
  8
0
 62
     0
 10
726.377
 20
231.307
 30
0.0
 11
726.281
 21
228.746
 31
0.0
  0
LINE
  8
0
 62
     0
 10
726.281
 20
228.746
 30
0.0
 11
725.879
 21
226.463
 31
0.0
  0
LINE
  8
0
 62
     0
 10
725.879
 20
226.463
 30
0.0
 11
725.442
 21
225.155
 31
0.0
  0
LINE
  8
0
 62
     0
 10
725.442
 20
225.155
 30
0.0
 11
725.205
 21
224.774
 31
0.0
  0
LINE
  8
0
 62
     0
 10
725.205
 20
224.774
 30
0.0
 11
725.114
 21
224.63
 31
0.0
  0
LINE
  8
0
 62
     0
 10
725.114
 20
224.63
 30
0.0
 11
724.74
 21
224.164
 31
0.0
  0
LINE
  8
0
 62
     0
 10
724.74
 20
224.164
 30
0.0
 11
724.542
 21
224.177
 31
0.0
  0
LINE
  8
0
 62
     0
 10
724.542
 20
224.177
 30
0.0
 11
724.542
 21
224.181
 31
0.0
  0
LINE
  8
0
 62
     0
 10
724.542
 20
224.181
 30
0.0
 11
724.539
 21
224.245
 31
0.0
  0
LINE
  8
0
 62
     0
 10
724.539
 20
224.245
 30
0.0
 11
724.288
 21
224.839
 31
0.0
  0
LINE
  8
0
 62
     0
 10
724.288
 20
224.839
 30
0.0
 11
723.808
 21
225.614
 31
0.0
  0
LINE
  8
0
 62
     0
 10
723.808
 20
225.614
 30
0.0
 11
723.692
 21
225.768
 31
0.0
  0
LINE
  8
0
 62
     0
 10
723.692
 20
225.768
 30
0.0
 11
723.579
 21
225.922
 31
0.0
  0
LINE
  8
0
 62
     0
 10
723.579
 20
225.922
 30
0.0
 11
722.873
 21
227.011
 31
0.0
  0
LINE
  8
0
 62
     0
 10
722.873
 20
227.011
 30
0.0
 11
722.189
 21
228.209
 31
0.0
  0
LINE
  8
0
 62
     0
 10
722.189
 20
228.209
 30
0.0
 11
722.087
 21
228.418
 31
0.0
  0
LINE
  8
0
 62
     0
 10
722.087
 20
228.418
 30
0.0
 11
722.016
 21
228.556
 31
0.0
  0
LINE
  8
0
 62
     0
 10
722.016
 20
228.556
 30
0.0
 11
721.279
 21
229.632
 31
0.0
  0
LINE
  8
0
 62
     0
 10
721.279
 20
229.632
 30
0.0
 11
721.194
 21
229.715
 31
0.0
  0
LINE
  8
0
 62
     0
 10
721.194
 20
229.715
 30
0.0
 11
721.184
 21
229.726
 31
0.0
  0
LINE
  8
0
 62
     0
 10
721.184
 20
229.726
 30
0.0
 11
721.071
 21
229.827
 31
0.0
  0
LINE
  8
0
 62
     0
 10
721.071
 20
229.827
 30
0.0
 11
721.06
 21
229.836
 31
0.0
  0
LINE
  8
0
 62
     0
 10
721.06
 20
229.836
 30
0.0
 11
720.983
 21
229.904
 31
0.0
  0
LINE
  8
0
 62
     0
 10
720.983
 20
229.904
 30
0.0
 11
720.118
 21
230.436
 31
0.0
  0
LINE
  8
0
 62
     0
 10
720.118
 20
230.436
 30
0.0
 11
720.016
 21
230.477
 31
0.0
  0
LINE
  8
0
 62
     0
 10
720.016
 20
230.477
 30
0.0
 11
719.462
 21
230.704
 31
0.0
  0
LINE
  8
0
 62
     0
 10
719.462
 20
230.704
 30
0.0
 11
717.825
 21
231.442
 31
0.0
  0
LINE
  8
0
 62
     0
 10
717.825
 20
231.442
 30
0.0
 11
715.37
 21
232.614
 31
0.0
  0
LINE
  8
0
 62
     0
 10
715.37
 20
232.614
 30
0.0
 11
713.274
 21
233.686
 31
0.0
  0
LINE
  8
0
 62
     0
 10
713.274
 20
233.686
 30
0.0
 11
712.294
 21
234.234
 31
0.0
  0
LINE
  8
0
 62
     0
 10
712.294
 20
234.234
 30
0.0
 11
712.156
 21
234.353
 31
0.0
  0
LINE
  8
0
 62
     0
 10
712.156
 20
234.353
 30
0.0
 11
711.994
 21
234.494
 31
0.0
  0
LINE
  8
0
 62
     0
 10
711.994
 20
234.494
 30
0.0
 11
710.731
 21
235.197
 31
0.0
  0
LINE
  8
0
 62
     0
 10
710.731
 20
235.197
 30
0.0
 11
708.981
 21
235.867
 31
0.0
  0
LINE
  8
0
 62
     0
 10
708.981
 20
235.867
 30
0.0
 11
708.575
 21
235.99
 31
0.0
  0
LINE
  8
0
 62
     0
 10
708.575
 20
235.99
 30
0.0
 11
708.526
 21
236.007
 31
0.0
  0
LINE
  8
0
 62
     0
 10
708.526
 20
236.007
 30
0.0
 11
708.004
 21
236.159
 31
0.0
  0
LINE
  8
0
 62
     0
 10
708.004
 20
236.159
 30
0.0
 11
707.951
 21
236.172
 31
0.0
  0
LINE
  8
0
 62
     0
 10
707.951
 20
236.172
 30
0.0
 11
707.577
 21
236.277
 31
0.0
  0
LINE
  8
0
 62
     0
 10
707.577
 20
236.277
 30
0.0
 11
705.577
 21
236.736
 31
0.0
  0
LINE
  8
0
 62
     0
 10
705.577
 20
236.736
 30
0.0
 11
703.467
 21
237.091
 31
0.0
  0
LINE
  8
0
 62
     0
 10
703.467
 20
237.091
 30
0.0
 11
703.04
 21
237.143
 31
0.0
  0
LINE
  8
0
 62
     0
 10
703.04
 20
237.143
 30
0.0
 11
702.31
 21
237.231
 31
0.0
  0
LINE
  8
0
 62
     0
 10
702.31
 20
237.231
 30
0.0
 11
700.13
 21
237.576
 31
0.0
  0
LINE
  8
0
 62
     0
 10
700.13
 20
237.576
 30
0.0
 11
696.655
 21
238.244
 31
0.0
  0
LINE
  8
0
 62
     0
 10
696.655
 20
238.244
 30
0.0
 11
692.577
 21
239.154
 31
0.0
  0
LINE
  8
0
 62
     0
 10
692.577
 20
239.154
 30
0.0
 11
689.024
 21
240.017
 31
0.0
  0
LINE
  8
0
 62
     0
 10
689.024
 20
240.017
 30
0.0
 11
687.846
 21
240.316
 31
0.0
  0
LINE
  8
0
 62
     0
 10
687.846
 20
240.316
 30
0.0
 11
687.592
 21
240.381
 31
0.0
  0
LINE
  8
0
 62
     0
 10
687.592
 20
240.381
 30
0.0
 11
686.827
 21
240.564
 31
0.0
  0
LINE
  8
0
 62
     0
 10
686.827
 20
240.564
 30
0.0
 11
685.49
 21
240.873
 31
0.0
  0
LINE
  8
0
 62
     0
 10
685.49
 20
240.873
 30
0.0
 11
684.008
 21
241.204
 31
0.0
  0
LINE
  8
0
 62
     0
 10
684.008
 20
241.204
 30
0.0
 11
682.918
 21
241.44
 31
0.0
  0
LINE
  8
0
 62
     0
 10
682.918
 20
241.44
 30
0.0
 11
682.554
 21
241.516
 31
0.0
  0
LINE
  8
0
 62
     0
 10
682.554
 20
241.516
 30
0.0
 11
682.092
 21
241.614
 31
0.0
  0
LINE
  8
0
 62
     0
 10
682.092
 20
241.614
 30
0.0
 11
679.27
 21
242.31
 31
0.0
  0
LINE
  8
0
 62
     0
 10
679.27
 20
242.31
 30
0.0
 11
676.511
 21
243.083
 31
0.0
  0
LINE
  8
0
 62
     0
 10
676.511
 20
243.083
 30
0.0
 11
676.084
 21
243.219
 31
0.0
  0
LINE
  8
0
 62
     0
 10
676.084
 20
243.219
 30
0.0
 11
672.529
 21
244.048
 31
0.0
  0
LINE
  8
0
 62
     0
 10
672.529
 20
244.048
 30
0.0
 11
672.345
 21
244.085
 31
0.0
  0
LINE
  8
0
 62
     0
 10
672.345
 20
244.085
 30
0.0
 11
671.671
 21
244.223
 31
0.0
  0
LINE
  8
0
 62
     0
 10
671.671
 20
244.223
 30
0.0
 11
671.064
 21
244.333
 31
0.0
  0
LINE
  8
0
 62
     0
 10
671.064
 20
244.333
 30
0.0
 11
670.913
 21
244.355
 31
0.0
  0
LINE
  8
0
 62
     0
 10
670.913
 20
244.355
 30
0.0
 11
671.756
 21
245.4
 31
0.0
  0
LINE
  8
0
 62
     0
 10
671.756
 20
245.4
 30
0.0
 11
674.218
 21
248.587
 31
0.0
  0
LINE
  8
0
 62
     0
 10
674.218
 20
248.587
 30
0.0
 11
677.478
 21
252.991
 31
0.0
  0
LINE
  8
0
 62
     0
 10
677.478
 20
252.991
 30
0.0
 11
680.572
 21
257.34
 31
0.0
  0
LINE
  8
0
 62
     0
 10
680.572
 20
257.34
 30
0.0
 11
683.373
 21
261.407
 31
0.0
  0
LINE
  8
0
 62
     0
 10
683.373
 20
261.407
 30
0.0
 11
685.765
 21
264.966
 31
0.0
  0
LINE
  8
0
 62
     0
 10
685.765
 20
264.966
 30
0.0
 11
687.624
 21
267.789
 31
0.0
  0
LINE
  8
0
 62
     0
 10
687.624
 20
267.789
 30
0.0
 11
688.83
 21
269.649
 31
0.0
  0
LINE
  8
0
 62
     0
 10
688.83
 20
269.649
 30
0.0
 11
689.257
 21
270.319
 31
0.0
  0
LINE
  8
0
 62
     0
 10
689.257
 20
270.319
 30
0.0
 11
689.257
 21
270.319
 31
0.0
  0
LINE
  8
0
 62
     0
 10
689.257
 20
270.319
 30
0.0
 11
689.536
 21
270.69
 31
0.0
  0
LINE
  8
0
 62
     0
 10
689.536
 20
270.69
 30
0.0
 11
690.351
 21
271.815
 31
0.0
  0
LINE
  8
0
 62
     0
 10
690.351
 20
271.815
 30
0.0
 11
691.476
 21
273.432
 31
0.0
  0
LINE
  8
0
 62
     0
 10
691.476
 20
273.432
 30
0.0
 11
692.577
 21
275.069
 31
0.0
  0
LINE
  8
0
 62
     0
 10
692.577
 20
275.069
 30
0.0
 11
693.6
 21
276.629
 31
0.0
  0
LINE
  8
0
 62
     0
 10
693.6
 20
276.629
 30
0.0
 11
694.489
 21
278.014
 31
0.0
  0
LINE
  8
0
 62
     0
 10
694.489
 20
278.014
 30
0.0
 11
695.194
 21
279.124
 31
0.0
  0
LINE
  8
0
 62
     0
 10
695.194
 20
279.124
 30
0.0
 11
695.653
 21
279.863
 31
0.0
  0
LINE
  8
0
 62
     0
 10
695.653
 20
279.863
 30
0.0
 11
695.822
 21
280.13
 31
0.0
  0
LINE
  8
0
 62
     0
 10
695.822
 20
280.13
 30
0.0
 11
695.822
 21
280.13
 31
0.0
  0
LINE
  8
0
 62
     0
 10
652.928
 20
280.498
 30
0.0
 11
652.928
 21
280.498
 31
0.0
  0
LINE
  8
0
 62
     0
 10
652.928
 20
280.498
 30
0.0
 11
652.784
 21
280.154
 31
0.0
  0
LINE
  8
0
 62
     0
 10
652.784
 20
280.154
 30
0.0
 11
652.413
 21
279.261
 31
0.0
  0
LINE
  8
0
 62
     0
 10
652.413
 20
279.261
 30
0.0
 11
651.912
 21
278.04
 31
0.0
  0
LINE
  8
0
 62
     0
 10
651.912
 20
278.04
 30
0.0
 11
651.51
 21
277.042
 31
0.0
  0
LINE
  8
0
 62
     0
 10
651.51
 20
277.042
 30
0.0
 11
651.379
 21
276.709
 31
0.0
  0
LINE
  8
0
 62
     0
 10
651.379
 20
276.709
 30
0.0
 11
651.291
 21
276.487
 31
0.0
  0
LINE
  8
0
 62
     0
 10
651.291
 20
276.487
 30
0.0
 11
651.062
 21
275.806
 31
0.0
  0
LINE
  8
0
 62
     0
 10
651.062
 20
275.806
 30
0.0
 11
650.656
 21
274.469
 31
0.0
  0
LINE
  8
0
 62
     0
 10
650.656
 20
274.469
 30
0.0
 11
650.205
 21
272.788
 31
0.0
  0
LINE
  8
0
 62
     0
 10
650.205
 20
272.788
 30
0.0
 11
649.743
 21
270.852
 31
0.0
  0
LINE
  8
0
 62
     0
 10
649.743
 20
270.852
 30
0.0
 11
649.305
 21
268.749
 31
0.0
  0
LINE
  8
0
 62
     0
 10
649.305
 20
268.749
 30
0.0
 11
648.942
 21
266.568
 31
0.0
  0
LINE
  8
0
 62
     0
 10
648.942
 20
266.568
 30
0.0
 11
648.681
 21
264.399
 31
0.0
  0
LINE
  8
0
 62
     0
 10
648.681
 20
264.399
 30
0.0
 11
648.575
 21
262.847
 31
0.0
  0
LINE
  8
0
 62
     0
 10
648.575
 20
262.847
 30
0.0
 11
648.568
 21
262.329
 31
0.0
  0
LINE
  8
0
 62
     0
 10
648.568
 20
262.329
 30
0.0
 11
648.561
 21
261.725
 31
0.0
  0
LINE
  8
0
 62
     0
 10
648.561
 20
261.725
 30
0.0
 11
648.455
 21
259.912
 31
0.0
  0
LINE
  8
0
 62
     0
 10
648.455
 20
259.912
 30
0.0
 11
648.335
 21
257.896
 31
0.0
  0
LINE
  8
0
 62
     0
 10
648.335
 20
257.896
 30
0.0
 11
648.43
 21
256.139
 31
0.0
  0
LINE
  8
0
 62
     0
 10
648.43
 20
256.139
 30
0.0
 11
648.772
 21
254.878
 31
0.0
  0
LINE
  8
0
 62
     0
 10
648.772
 20
254.878
 30
0.0
 11
648.966
 21
254.497
 31
0.0
  0
LINE
  8
0
 62
     0
 10
648.966
 20
254.497
 30
0.0
 11
649.178
 21
254.077
 31
0.0
  0
LINE
  8
0
 62
     0
 10
649.178
 20
254.077
 30
0.0
 11
649.93
 21
252.871
 31
0.0
  0
LINE
  8
0
 62
     0
 10
649.93
 20
252.871
 30
0.0
 11
651.147
 21
251.226
 31
0.0
  0
LINE
  8
0
 62
     0
 10
651.147
 20
251.226
 30
0.0
 11
652.487
 21
249.717
 31
0.0
  0
LINE
  8
0
 62
     0
 10
652.487
 20
249.717
 30
0.0
 11
653.479
 21
248.78
 31
0.0
  0
LINE
  8
0
 62
     0
 10
653.479
 20
248.78
 30
0.0
 11
653.831
 21
248.502
 31
0.0
  0
LINE
  8
0
 62
     0
 10
653.831
 20
248.502
 30
0.0
 11
653.969
 21
248.395
 31
0.0
  0
LINE
  8
0
 62
     0
 10
653.969
 20
248.395
 30
0.0
 11
654.389
 21
248.085
 31
0.0
  0
LINE
  8
0
 62
     0
 10
654.389
 20
248.085
 30
0.0
 11
655.087
 21
247.596
 31
0.0
  0
LINE
  8
0
 62
     0
 10
655.087
 20
247.596
 30
0.0
 11
655.86
 21
247.074
 31
0.0
  0
LINE
  8
0
 62
     0
 10
655.86
 20
247.074
 30
0.0
 11
656.646
 21
246.557
 31
0.0
  0
LINE
  8
0
 62
     0
 10
656.646
 20
246.557
 30
0.0
 11
657.387
 21
246.086
 31
0.0
  0
LINE
  8
0
 62
     0
 10
657.387
 20
246.086
 30
0.0
 11
658.026
 21
245.7
 31
0.0
  0
LINE
  8
0
 62
     0
 10
658.026
 20
245.7
 30
0.0
 11
658.488
 21
245.439
 31
0.0
  0
LINE
  8
0
 62
     0
 10
658.488
 20
245.439
 30
0.0
 11
658.664
 21
245.343
 31
0.0
  0
LINE
  8
0
 62
     0
 10
658.664
 20
245.343
 30
0.0
 11
658.724
 21
245.343
 31
0.0
  0
LINE
  8
0
 62
     0
 10
658.724
 20
245.343
 30
0.0
 11
658.795
 21
245.343
 31
0.0
  0
LINE
  8
0
 62
     0
 10
658.795
 20
245.343
 30
0.0
 11
659.01
 21
245.262
 31
0.0
  0
LINE
  8
0
 62
     0
 10
659.01
 20
245.262
 30
0.0
 11
659.603
 21
245.039
 31
0.0
  0
LINE
  8
0
 62
     0
 10
659.603
 20
245.039
 30
0.0
 11
660.411
 21
244.708
 31
0.0
  0
LINE
  8
0
 62
     0
 10
660.411
 20
244.708
 30
0.0
 11
661.116
 21
244.406
 31
0.0
  0
LINE
  8
0
 62
     0
 10
661.116
 20
244.406
 30
0.0
 11
661.352
 21
244.303
 31
0.0
  0
LINE
  8
0
 62
     0
 10
661.352
 20
244.303
 30
0.0
 11
661.79
 21
244.111
 31
0.0
  0
LINE
  8
0
 62
     0
 10
661.79
 20
244.111
 30
0.0
 11
664.072
 21
243.399
 31
0.0
  0
LINE
  8
0
 62
     0
 10
664.072
 20
243.399
 30
0.0
 11
666.941
 21
242.914
 31
0.0
  0
LINE
  8
0
 62
     0
 10
666.941
 20
242.914
 30
0.0
 11
667.671
 21
242.834
 31
0.0
  0
LINE
  8
0
 62
     0
 10
667.671
 20
242.834
 30
0.0
 11
667.822
 21
242.828
 31
0.0
  0
LINE
  8
0
 62
     0
 10
667.822
 20
242.828
 30
0.0
 11
668.274
 21
242.696
 31
0.0
  0
LINE
  8
0
 62
     0
 10
668.274
 20
242.696
 30
0.0
 11
668.503
 21
242.441
 31
0.0
  0
LINE
  8
0
 62
     0
 10
668.503
 20
242.441
 30
0.0
 11
668.521
 21
242.194
 31
0.0
  0
LINE
  8
0
 62
     0
 10
668.521
 20
242.194
 30
0.0
 11
668.489
 21
242.084
 31
0.0
  0
LINE
  8
0
 62
     0
 10
668.489
 20
242.084
 30
0.0
 11
668.489
 21
242.084
 31
0.0
  0
LINE
  8
0
 62
     0
 10
668.489
 20
242.084
 30
0.0
 11
665.713
 21
238.682
 31
0.0
  0
LINE
  8
0
 62
     0
 10
665.713
 20
238.682
 30
0.0
 11
657.003
 21
228.781
 31
0.0
  0
LINE
  8
0
 62
     0
 10
657.003
 20
228.781
 30
0.0
 11
644.867
 21
216.22
 31
0.0
  0
LINE
  8
0
 62
     0
 10
644.867
 20
216.22
 30
0.0
 11
632.121
 21
204.417
 31
0.0
  0
LINE
  8
0
 62
     0
 10
632.121
 20
204.417
 30
0.0
 11
618.793
 21
193.389
 31
0.0
  0
LINE
  8
0
 62
     0
 10
618.793
 20
193.389
 30
0.0
 11
604.922
 21
183.151
 31
0.0
  0
LINE
  8
0
 62
     0
 10
604.922
 20
183.151
 30
0.0
 11
590.539
 21
173.718
 31
0.0
  0
LINE
  8
0
 62
     0
 10
590.539
 20
173.718
 30
0.0
 11
575.684
 21
165.108
 31
0.0
  0
LINE
  8
0
 62
     0
 10
575.684
 20
165.108
 30
0.0
 11
560.388
 21
157.335
 31
0.0
  0
LINE
  8
0
 62
     0
 10
560.388
 20
157.335
 30
0.0
 11
544.678
 21
150.414
 31
0.0
  0
LINE
  8
0
 62
     0
 10
544.678
 20
150.414
 30
0.0
 11
528.602
 21
144.362
 31
0.0
  0
LINE
  8
0
 62
     0
 10
528.602
 20
144.362
 30
0.0
 11
512.184
 21
139.196
 31
0.0
  0
LINE
  8
0
 62
     0
 10
512.184
 20
139.196
 30
0.0
 11
495.462
 21
134.929
 31
0.0
  0
LINE
  8
0
 62
     0
 10
495.462
 20
134.929
 30
0.0
 11
478.473
 21
131.579
 31
0.0
  0
LINE
  8
0
 62
     0
 10
478.473
 20
131.579
 30
0.0
 11
461.25
 21
129.161
 31
0.0
  0
LINE
  8
0
 62
     0
 10
461.25
 20
129.161
 30
0.0
 11
443.823
 21
127.69
 31
0.0
  0
LINE
  8
0
 62
     0
 10
443.823
 20
127.69
 30
0.0
 11
430.625
 21
127.189
 31
0.0
  0
LINE
  8
0
 62
     0
 10
430.625
 20
127.189
 30
0.0
 11
426.23
 21
127.183
 31
0.0
  0
LINE
  8
0
 62
     0
 10
426.23
 20
127.183
 30
0.0
 11
421.633
 21
127.179
 31
0.0
  0
LINE
  8
0
 62
     0
 10
421.633
 20
127.179
 30
0.0
 11
407.843
 21
127.707
 31
0.0
  0
LINE
  8
0
 62
     0
 10
407.843
 20
127.707
 30
0.0
 11
389.608
 21
129.303
 31
0.0
  0
LINE
  8
0
 62
     0
 10
389.608
 20
129.303
 30
0.0
 11
371.574
 21
131.953
 31
0.0
  0
LINE
  8
0
 62
     0
 10
371.574
 20
131.953
 30
0.0
 11
353.78
 21
135.636
 31
0.0
  0
LINE
  8
0
 62
     0
 10
353.78
 20
135.636
 30
0.0
 11
336.264
 21
140.335
 31
0.0
  0
LINE
  8
0
 62
     0
 10
336.264
 20
140.335
 30
0.0
 11
319.074
 21
146.029
 31
0.0
  0
LINE
  8
0
 62
     0
 10
319.074
 20
146.029
 30
0.0
 11
302.25
 21
152.699
 31
0.0
  0
LINE
  8
0
 62
     0
 10
302.25
 20
152.699
 30
0.0
 11
289.881
 21
158.302
 31
0.0
  0
LINE
  8
0
 62
     0
 10
289.881
 20
158.302
 30
0.0
 11
285.837
 21
160.324
 31
0.0
  0
LINE
  8
0
 62
     0
 10
285.837
 20
160.324
 30
0.0
 11
286.391
 21
160.923
 31
0.0
  0
LINE
  8
0
 62
     0
 10
286.391
 20
160.923
 30
0.0
 11
288.089
 21
162.687
 31
0.0
  0
LINE
  8
0
 62
     0
 10
288.089
 20
162.687
 30
0.0
 11
290.934
 21
165.566
 31
0.0
  0
LINE
  8
0
 62
     0
 10
290.934
 20
165.566
 30
0.0
 11
293.838
 21
168.42
 31
0.0
  0
LINE
  8
0
 62
     0
 10
293.838
 20
168.42
 30
0.0
 11
295.647
 21
170.146
 31
0.0
  0
LINE
  8
0
 62
     0
 10
295.647
 20
170.146
 30
0.0
 11
296.266
 21
170.706
 31
0.0
  0
LINE
  8
0
 62
     0
 10
296.266
 20
170.706
 30
0.0
 11
296.614
 21
171.021
 31
0.0
  0
LINE
  8
0
 62
     0
 10
296.614
 20
171.021
 30
0.0
 11
297.666
 21
171.964
 31
0.0
  0
LINE
  8
0
 62
     0
 10
297.666
 20
171.964
 30
0.0
 11
298.84
 21
172.981
 31
0.0
  0
LINE
  8
0
 62
     0
 10
298.84
 20
172.981
 30
0.0
 11
299.879
 21
173.819
 31
0.0
  0
LINE
  8
0
 62
     0
 10
299.879
 20
173.819
 30
0.0
 11
300.877
 21
174.542
 31
0.0
  0
LINE
  8
0
 62
     0
 10
300.877
 20
174.542
 30
0.0
 11
301.926
 21
175.215
 31
0.0
  0
LINE
  8
0
 62
     0
 10
301.926
 20
175.215
 30
0.0
 11
303.121
 21
175.9
 31
0.0
  0
LINE
  8
0
 62
     0
 10
303.121
 20
175.9
 30
0.0
 11
304.555
 21
176.661
 31
0.0
  0
LINE
  8
0
 62
     0
 10
304.555
 20
176.661
 30
0.0
 11
305.878
 21
177.337
 31
0.0
  0
LINE
  8
0
 62
     0
 10
305.878
 20
177.337
 30
0.0
 11
306.32
 21
177.56
 31
0.0
  0
LINE
  8
0
 62
     0
 10
306.32
 20
177.56
 30
0.0
 11
307.241
 21
178.026
 31
0.0
  0
LINE
  8
0
 62
     0
 10
307.241
 20
178.026
 30
0.0
 11
309.984
 21
179.463
 31
0.0
  0
LINE
  8
0
 62
     0
 10
309.984
 20
179.463
 30
0.0
 11
314.462
 21
181.854
 31
0.0
  0
LINE
  8
0
 62
     0
 10
314.462
 20
181.854
 30
0.0
 11
318.95
 21
184.3
 31
0.0
  0
LINE
  8
0
 62
     0
 10
318.95
 20
184.3
 30
0.0
 11
321.726
 21
185.844
 31
0.0
  0
LINE
  8
0
 62
     0
 10
321.726
 20
185.844
 30
0.0
 11
322.646
 21
186.37
 31
0.0
  0
LINE
  8
0
 62
     0
 10
322.646
 20
186.37
 30
0.0
 11
323.446
 21
186.83
 31
0.0
  0
LINE
  8
0
 62
     0
 10
323.446
 20
186.83
 30
0.0
 11
325.857
 21
188.204
 31
0.0
  0
LINE
  8
0
 62
     0
 10
325.857
 20
188.204
 30
0.0
 11
329.467
 21
190.249
 31
0.0
  0
LINE
  8
0
 62
     0
 10
329.467
 20
190.249
 30
0.0
 11
333.025
 21
192.256
 31
0.0
  0
LINE
  8
0
 62
     0
 10
333.025
 20
192.256
 30
0.0
 11
335.321
 21
193.541
 31
0.0
  0
LINE
  8
0
 62
     0
 10
335.321
 20
193.541
 30
0.0
 11
336.087
 21
193.967
 31
0.0
  0
LINE
  8
0
 62
     0
 10
336.087
 20
193.967
 30
0.0
 11
336.509
 21
194.203
 31
0.0
  0
LINE
  8
0
 62
     0
 10
336.509
 20
194.203
 30
0.0
 11
337.774
 21
194.908
 31
0.0
  0
LINE
  8
0
 62
     0
 10
337.774
 20
194.908
 30
0.0
 11
339.401
 21
195.815
 31
0.0
  0
LINE
  8
0
 62
     0
 10
339.401
 20
195.815
 30
0.0
 11
340.782
 21
196.587
 31
0.0
  0
LINE
  8
0
 62
     0
 10
340.782
 20
196.587
 30
0.0
 11
341.507
 21
196.992
 31
0.0
  0
LINE
  8
0
 62
     0
 10
341.507
 20
196.992
 30
0.0
 11
341.732
 21
197.117
 31
0.0
  0
LINE
  8
0
 62
     0
 10
341.732
 20
197.117
 30
0.0
 11
341.951
 21
197.241
 31
0.0
  0
LINE
  8
0
 62
     0
 10
341.951
 20
197.241
 30
0.0
 11
342.615
 21
197.607
 31
0.0
  0
LINE
  8
0
 62
     0
 10
342.615
 20
197.607
 30
0.0
 11
343.815
 21
198.257
 31
0.0
  0
LINE
  8
0
 62
     0
 10
343.815
 20
198.257
 30
0.0
 11
345.175
 21
198.987
 31
0.0
  0
LINE
  8
0
 62
     0
 10
345.175
 20
198.987
 30
0.0
 11
346.195
 21
199.532
 31
0.0
  0
LINE
  8
0
 62
     0
 10
346.195
 20
199.532
 30
0.0
 11
346.537
 21
199.711
 31
0.0
  0
LINE
  8
0
 62
     0
 10
346.537
 20
199.711
 30
0.0
 11
346.873
 21
199.888
 31
0.0
  0
LINE
  8
0
 62
     0
 10
346.873
 20
199.888
 30
0.0
 11
347.88
 21
200.426
 31
0.0
  0
LINE
  8
0
 62
     0
 10
347.88
 20
200.426
 30
0.0
 11
349.194
 21
201.132
 31
0.0
  0
LINE
  8
0
 62
     0
 10
349.194
 20
201.132
 30
0.0
 11
350.324
 21
201.749
 31
0.0
  0
LINE
  8
0
 62
     0
 10
350.324
 20
201.749
 30
0.0
 11
350.929
 21
202.082
 31
0.0
  0
LINE
  8
0
 62
     0
 10
350.929
 20
202.082
 30
0.0
 11
351.123
 21
202.193
 31
0.0
  0
LINE
  8
0
 62
     0
 10
351.123
 20
202.193
 30
0.0
 11
352.206
 21
202.811
 31
0.0
  0
LINE
  8
0
 62
     0
 10
352.206
 20
202.811
 30
0.0
 11
355.519
 21
204.557
 31
0.0
  0
LINE
  8
0
 62
     0
 10
355.519
 20
204.557
 30
0.0
 11
359.936
 21
206.682
 31
0.0
  0
LINE
  8
0
 62
     0
 10
359.936
 20
206.682
 30
0.0
 11
363.82
 21
208.325
 31
0.0
  0
LINE
  8
0
 62
     0
 10
363.82
 20
208.325
 30
0.0
 11
365.94
 21
209.083
 31
0.0
  0
LINE
  8
0
 62
     0
 10
365.94
 20
209.083
 30
0.0
 11
366.645
 21
209.238
 31
0.0
  0
LINE
  8
0
 62
     0
 10
366.645
 20
209.238
 30
0.0
 11
366.935
 21
209.303
 31
0.0
  0
LINE
  8
0
 62
     0
 10
366.935
 20
209.303
 30
0.0
 11
367.898
 21
209.538
 31
0.0
  0
LINE
  8
0
 62
     0
 10
367.898
 20
209.538
 30
0.0
 11
369.746
 21
210
 31
0.0
  0
LINE
  8
0
 62
     0
 10
369.746
 20
210
 30
0.0
 11
371.937
 21
210.566
 31
0.0
  0
LINE
  8
0
 62
     0
 10
371.937
 20
210.566
 30
0.0
 11
373.655
 21
211.016
 31
0.0
  0
LINE
  8
0
 62
     0
 10
373.655
 20
211.016
 30
0.0
 11
374.23
 21
211.168
 31
0.0
  0
LINE
  8
0
 62
     0
 10
374.23
 20
211.168
 30
0.0
 11
374.939
 21
211.358
 31
0.0
  0
LINE
  8
0
 62
     0
 10
374.939
 20
211.358
 30
0.0
 11
377.07
 21
211.924
 31
0.0
  0
LINE
  8
0
 62
     0
 10
377.07
 20
211.924
 30
0.0
 11
379.928
 21
212.681
 31
0.0
  0
LINE
  8
0
 62
     0
 10
379.928
 20
212.681
 30
0.0
 11
382.7
 21
213.413
 31
0.0
  0
LINE
  8
0
 62
     0
 10
382.7
 20
213.413
 30
0.0
 11
385.3
 21
214.093
 31
0.0
  0
LINE
  8
0
 62
     0
 10
385.3
 20
214.093
 30
0.0
 11
387.629
 21
214.701
 31
0.0
  0
LINE
  8
0
 62
     0
 10
387.629
 20
214.701
 30
0.0
 11
389.594
 21
215.208
 31
0.0
  0
LINE
  8
0
 62
     0
 10
389.594
 20
215.208
 30
0.0
 11
391.096
 21
215.593
 31
0.0
  0
LINE
  8
0
 62
     0
 10
391.096
 20
215.593
 30
0.0
 11
391.806
 21
215.771
 31
0.0
  0
LINE
  8
0
 62
     0
 10
391.806
 20
215.771
 30
0.0
 11
392.045
 21
215.827
 31
0.0
  0
LINE
  8
0
 62
     0
 10
392.045
 20
215.827
 30
0.0
 11
392.222
 21
215.87
 31
0.0
  0
LINE
  8
0
 62
     0
 10
392.222
 20
215.87
 30
0.0
 11
392.758
 21
216.01
 31
0.0
  0
LINE
  8
0
 62
     0
 10
392.758
 20
216.01
 30
0.0
 11
393.661
 21
216.26
 31
0.0
  0
LINE
  8
0
 62
     0
 10
393.661
 20
216.26
 30
0.0
 11
394.638
 21
216.542
 31
0.0
  0
LINE
  8
0
 62
     0
 10
394.638
 20
216.542
 30
0.0
 11
395.34
 21
216.752
 31
0.0
  0
LINE
  8
0
 62
     0
 10
395.34
 20
216.752
 30
0.0
 11
395.573
 21
216.823
 31
0.0
  0
LINE
  8
0
 62
     0
 10
395.573
 20
216.823
 30
0.0
 11
396.466
 21
217.103
 31
0.0
  0
LINE
  8
0
 62
     0
 10
396.466
 20
217.103
 30
0.0
 11
401.313
 21
218.573
 31
0.0
  0
LINE
  8
0
 62
     0
 10
401.313
 20
218.573
 30
0.0
 11
406.03
 21
219.961
 31
0.0
  0
LINE
  8
0
 62
     0
 10
406.03
 20
219.961
 30
0.0
 11
406.862
 21
220.198
 31
0.0
  0
LINE
  8
0
 62
     0
 10
406.862
 20
220.198
 30
0.0
 11
407.296
 21
220.323
 31
0.0
  0
LINE
  8
0
 62
     0
 10
407.296
 20
220.323
 30
0.0
 11
409.984
 21
221.095
 31
0.0
  0
LINE
  8
0
 62
     0
 10
409.984
 20
221.095
 30
0.0
 11
412.623
 21
221.856
 31
0.0
  0
LINE
  8
0
 62
     0
 10
412.623
 20
221.856
 30
0.0
 11
413.036
 21
221.974
 31
0.0
  0
LINE
  8
0
 62
     0
 10
413.036
 20
221.974
 30
0.0
 11
414.348
 21
222.356
 31
0.0
  0
LINE
  8
0
 62
     0
 10
414.348
 20
222.356
 30
0.0
 11
418.303
 21
223.457
 31
0.0
  0
LINE
  8
0
 62
     0
 10
418.303
 20
223.457
 30
0.0
 11
422.712
 21
224.589
 31
0.0
  0
LINE
  8
0
 62
     0
 10
422.712
 20
224.589
 30
0.0
 11
426.473
 21
225.419
 31
0.0
  0
LINE
  8
0
 62
     0
 10
426.473
 20
225.419
 30
0.0
 11
428.96
 21
225.877
 31
0.0
  0
LINE
  8
0
 62
     0
 10
428.96
 20
225.877
 30
0.0
 11
429.793
 21
226.001
 31
0.0
  0
LINE
  8
0
 62
     0
 10
429.793
 20
226.001
 30
0.0
 11
430.283
 21
226.074
 31
0.0
  0
LINE
  8
0
 62
     0
 10
430.283
 20
226.074
 30
0.0
 11
431.754
 21
226.308
 31
0.0
  0
LINE
  8
0
 62
     0
 10
431.754
 20
226.308
 30
0.0
 11
433.705
 21
226.638
 31
0.0
  0
LINE
  8
0
 62
     0
 10
433.705
 20
226.638
 30
0.0
 11
435.42
 21
226.949
 31
0.0
  0
LINE
  8
0
 62
     0
 10
435.42
 20
226.949
 30
0.0
 11
436.361
 21
227.134
 31
0.0
  0
LINE
  8
0
 62
     0
 10
436.361
 20
227.134
 30
0.0
 11
436.672
 21
227.203
 31
0.0
  0
LINE
  8
0
 62
     0
 10
436.672
 20
227.203
 30
0.0
 11
436.979
 21
227.273
 31
0.0
  0
LINE
  8
0
 62
     0
 10
436.979
 20
227.273
 30
0.0
 11
437.91
 21
227.449
 31
0.0
  0
LINE
  8
0
 62
     0
 10
437.91
 20
227.449
 30
0.0
 11
439.586
 21
227.736
 31
0.0
  0
LINE
  8
0
 62
     0
 10
439.586
 20
227.736
 30
0.0
 11
441.48
 21
228.03
 31
0.0
  0
LINE
  8
0
 62
     0
 10
441.48
 20
228.03
 30
0.0
 11
442.898
 21
228.232
 31
0.0
  0
LINE
  8
0
 62
     0
 10
442.898
 20
228.232
 30
0.0
 11
443.375
 21
228.293
 31
0.0
  0
LINE
  8
0
 62
     0
 10
443.375
 20
228.293
 30
0.0
 11
444.193
 21
228.4
 31
0.0
  0
LINE
  8
0
 62
     0
 10
444.193
 20
228.4
 30
0.0
 11
446.648
 21
228.728
 31
0.0
  0
LINE
  8
0
 62
     0
 10
446.648
 20
228.728
 30
0.0
 11
450.007
 21
229.186
 31
0.0
  0
LINE
  8
0
 62
     0
 10
450.007
 20
229.186
 30
0.0
 11
453.298
 21
229.645
 31
0.0
  0
LINE
  8
0
 62
     0
 10
453.298
 20
229.645
 30
0.0
 11
456.364
 21
230.083
 31
0.0
  0
LINE
  8
0
 62
     0
 10
456.364
 20
230.083
 30
0.0
 11
459.041
 21
230.477
 31
0.0
  0
LINE
  8
0
 62
     0
 10
459.041
 20
230.477
 30
0.0
 11
461.176
 21
230.803
 31
0.0
  0
LINE
  8
0
 62
     0
 10
461.176
 20
230.803
 30
0.0
 11
462.612
 21
231.041
 31
0.0
  0
LINE
  8
0
 62
     0
 10
462.612
 20
231.041
 30
0.0
 11
463.127
 21
231.124
 31
0.0
  0
LINE
  8
0
 62
     0
 10
463.127
 20
231.124
 30
0.0
 11
463.19
 21
231.165
 31
0.0
  0
LINE
  8
0
 62
     0
 10
463.19
 20
231.165
 30
0.0
 11
463.225
 21
231.187
 31
0.0
  0
LINE
  8
0
 62
     0
 10
463.225
 20
231.187
 30
0.0
 11
463.663
 21
231.296
 31
0.0
  0
LINE
  8
0
 62
     0
 10
463.663
 20
231.296
 30
0.0
 11
464.753
 21
231.534
 31
0.0
  0
LINE
  8
0
 62
     0
 10
464.753
 20
231.534
 30
0.0
 11
466.298
 21
231.844
 31
0.0
  0
LINE
  8
0
 62
     0
 10
466.298
 20
231.844
 30
0.0
 11
467.681
 21
232.108
 31
0.0
  0
LINE
  8
0
 62
     0
 10
467.681
 20
232.108
 30
0.0
 11
468.143
 21
232.193
 31
0.0
  0
LINE
  8
0
 62
     0
 10
468.143
 20
232.193
 30
0.0
 11
468.648
 21
232.286
 31
0.0
  0
LINE
  8
0
 62
     0
 10
468.648
 20
232.286
 30
0.0
 11
470.165
 21
232.584
 31
0.0
  0
LINE
  8
0
 62
     0
 10
470.165
 20
232.584
 30
0.0
 11
472.214
 21
233.01
 31
0.0
  0
LINE
  8
0
 62
     0
 10
472.214
 20
233.01
 30
0.0
 11
474.045
 21
233.42
 31
0.0
  0
LINE
  8
0
 62
     0
 10
474.045
 20
233.42
 30
0.0
 11
475.082
 21
233.668
 31
0.0
  0
LINE
  8
0
 62
     0
 10
475.082
 20
233.668
 30
0.0
 11
475.425
 21
233.761
 31
0.0
  0
LINE
  8
0
 62
     0
 10
475.425
 20
233.761
 30
0.0
 11
476.215
 21
233.976
 31
0.0
  0
LINE
  8
0
 62
     0
 10
476.215
 20
233.976
 30
0.0
 11
478.614
 21
234.563
 31
0.0
  0
LINE
  8
0
 62
     0
 10
478.614
 20
234.563
 30
0.0
 11
481.933
 21
235.241
 31
0.0
  0
LINE
  8
0
 62
     0
 10
481.933
 20
235.241
 30
0.0
 11
485.937
 21
235.893
 31
0.0
  0
LINE
  8
0
 62
     0
 10
485.937
 20
235.893
 30
0.0
 11
489.864
 21
236.448
 31
0.0
  0
LINE
  8
0
 62
     0
 10
489.864
 20
236.448
 30
0.0
 11
491.176
 21
236.62
 31
0.0
  0
LINE
  8
0
 62
     0
 10
491.176
 20
236.62
 30
0.0
 11
492.1
 21
236.743
 31
0.0
  0
LINE
  8
0
 62
     0
 10
492.1
 20
236.743
 30
0.0
 11
494.884
 21
237.119
 31
0.0
  0
LINE
  8
0
 62
     0
 10
494.884
 20
237.119
 30
0.0
 11
498.461
 21
237.61
 31
0.0
  0
LINE
  8
0
 62
     0
 10
498.461
 20
237.61
 30
0.0
 11
501.802
 21
238.081
 31
0.0
  0
LINE
  8
0
 62
     0
 10
501.802
 20
238.081
 30
0.0
 11
504.804
 21
238.516
 31
0.0
  0
LINE
  8
0
 62
     0
 10
504.804
 20
238.516
 30
0.0
 11
507.372
 21
238.901
 31
0.0
  0
LINE
  8
0
 62
     0
 10
507.372
 20
238.901
 30
0.0
 11
509.397
 21
239.22
 31
0.0
  0
LINE
  8
0
 62
     0
 10
509.397
 20
239.22
 30
0.0
 11
510.787
 21
239.459
 31
0.0
  0
LINE
  8
0
 62
     0
 10
510.787
 20
239.459
 30
0.0
 11
511.277
 21
239.544
 31
0.0
  0
LINE
  8
0
 62
     0
 10
511.277
 20
239.544
 30
0.0
 11
511.433
 21
239.602
 31
0.0
  0
LINE
  8
0
 62
     0
 10
511.433
 20
239.602
 30
0.0
 11
511.5
 21
239.629
 31
0.0
  0
LINE
  8
0
 62
     0
 10
511.5
 20
239.629
 30
0.0
 11
512
 21
239.732
 31
0.0
  0
LINE
  8
0
 62
     0
 10
512
 20
239.732
 30
0.0
 11
513.189
 21
239.944
 31
0.0
  0
LINE
  8
0
 62
     0
 10
513.189
 20
239.944
 30
0.0
 11
514.823
 21
240.209
 31
0.0
  0
LINE
  8
0
 62
     0
 10
514.823
 20
240.209
 30
0.0
 11
516.248
 21
240.428
 31
0.0
  0
LINE
  8
0
 62
     0
 10
516.248
 20
240.428
 30
0.0
 11
516.724
 21
240.497
 31
0.0
  0
LINE
  8
0
 62
     0
 10
516.724
 20
240.497
 30
0.0
 11
517.211
 21
240.568
 31
0.0
  0
LINE
  8
0
 62
     0
 10
517.211
 20
240.568
 30
0.0
 11
518.679
 21
240.798
 31
0.0
  0
LINE
  8
0
 62
     0
 10
518.679
 20
240.798
 30
0.0
 11
520.467
 21
241.098
 31
0.0
  0
LINE
  8
0
 62
     0
 10
520.467
 20
241.098
 30
0.0
 11
521.892
 21
241.362
 31
0.0
  0
LINE
  8
0
 62
     0
 10
521.892
 20
241.362
 30
0.0
 11
522.577
 21
241.507
 31
0.0
  0
LINE
  8
0
 62
     0
 10
522.577
 20
241.507
 30
0.0
 11
522.75
 21
241.555
 31
0.0
  0
LINE
  8
0
 62
     0
 10
522.75
 20
241.555
 30
0.0
 11
522.919
 21
241.604
 31
0.0
  0
LINE
  8
0
 62
     0
 10
522.919
 20
241.604
 30
0.0
 11
523.589
 21
241.763
 31
0.0
  0
LINE
  8
0
 62
     0
 10
523.589
 20
241.763
 30
0.0
 11
524.969
 21
242.063
 31
0.0
  0
LINE
  8
0
 62
     0
 10
524.969
 20
242.063
 30
0.0
 11
526.69
 21
242.416
 31
0.0
  0
LINE
  8
0
 62
     0
 10
526.69
 20
242.416
 30
0.0
 11
528.098
 21
242.693
 31
0.0
  0
LINE
  8
0
 62
     0
 10
528.098
 20
242.693
 30
0.0
 11
528.57
 21
242.781
 31
0.0
  0
LINE
  8
0
 62
     0
 10
528.57
 20
242.781
 30
0.0
 11
529.11
 21
242.883
 31
0.0
  0
LINE
  8
0
 62
     0
 10
529.11
 20
242.883
 30
0.0
 11
530.726
 21
243.2
 31
0.0
  0
LINE
  8
0
 62
     0
 10
530.726
 20
243.2
 30
0.0
 11
533.206
 21
243.696
 31
0.0
  0
LINE
  8
0
 62
     0
 10
533.206
 20
243.696
 30
0.0
 11
535.707
 21
244.21
 31
0.0
  0
LINE
  8
0
 62
     0
 10
535.707
 20
244.21
 30
0.0
 11
537.365
 21
244.559
 31
0.0
  0
LINE
  8
0
 62
     0
 10
537.365
 20
244.559
 30
0.0
 11
537.919
 21
244.677
 31
0.0
  0
LINE
  8
0
 62
     0
 10
537.919
 20
244.677
 30
0.0
 11
538.445
 21
244.792
 31
0.0
  0
LINE
  8
0
 62
     0
 10
538.445
 20
244.792
 30
0.0
 11
540.025
 21
245.131
 31
0.0
  0
LINE
  8
0
 62
     0
 10
540.025
 20
245.131
 30
0.0
 11
542.269
 21
245.609
 31
0.0
  0
LINE
  8
0
 62
     0
 10
542.269
 20
245.609
 30
0.0
 11
544.527
 21
246.086
 31
0.0
  0
LINE
  8
0
 62
     0
 10
544.527
 20
246.086
 30
0.0
 11
546.668
 21
246.535
 31
0.0
  0
LINE
  8
0
 62
     0
 10
546.668
 20
246.535
 30
0.0
 11
548.566
 21
246.932
 31
0.0
  0
LINE
  8
0
 62
     0
 10
548.566
 20
246.932
 30
0.0
 11
550.097
 21
247.247
 31
0.0
  0
LINE
  8
0
 62
     0
 10
550.097
 20
247.247
 30
0.0
 11
551.134
 21
247.457
 31
0.0
  0
LINE
  8
0
 62
     0
 10
551.134
 20
247.457
 30
0.0
 11
551.448
 21
247.531
 31
0.0
  0
LINE
  8
0
 62
     0
 10
551.448
 20
247.531
 30
0.0
 11
551.55
 21
247.531
 31
0.0
  0
LINE
  8
0
 62
     0
 10
551.55
 20
247.531
 30
0.0
 11
551.628
 21
247.531
 31
0.0
  0
LINE
  8
0
 62
     0
 10
551.628
 20
247.531
 30
0.0
 11
551.864
 21
247.159
 31
0.0
  0
LINE
  8
0
 62
     0
 10
551.864
 20
247.159
 30
0.0
 11
552.309
 21
246.188
 31
0.0
  0
LINE
  8
0
 62
     0
 10
552.309
 20
246.188
 30
0.0
 11
552.792
 21
244.837
 31
0.0
  0
LINE
  8
0
 62
     0
 10
552.792
 20
244.837
 30
0.0
 11
553.134
 21
243.71
 31
0.0
  0
LINE
  8
0
 62
     0
 10
553.134
 20
243.71
 30
0.0
 11
553.23
 21
243.33
 31
0.0
  0
LINE
  8
0
 62
     0
 10
553.23
 20
243.33
 30
0.0
 11
553.54
 21
242.11
 31
0.0
  0
LINE
  8
0
 62
     0
 10
553.54
 20
242.11
 30
0.0
 11
554.934
 21
238.569
 31
0.0
  0
LINE
  8
0
 62
     0
 10
554.934
 20
238.569
 30
0.0
 11
557.502
 21
234.144
 31
0.0
  0
LINE
  8
0
 62
     0
 10
557.502
 20
234.144
 30
0.0
 11
560.867
 21
230.098
 31
0.0
  0
LINE
  8
0
 62
     0
 10
560.867
 20
230.098
 30
0.0
 11
564.981
 21
226.479
 31
0.0
  0
LINE
  8
0
 62
     0
 10
564.981
 20
226.479
 30
0.0
 11
569.775
 21
223.332
 31
0.0
  0
LINE
  8
0
 62
     0
 10
569.775
 20
223.332
 30
0.0
 11
575.19
 21
220.7
 31
0.0
  0
LINE
  8
0
 62
     0
 10
575.19
 20
220.7
 30
0.0
 11
581.173
 21
218.631
 31
0.0
  0
LINE
  8
0
 62
     0
 10
581.173
 20
218.631
 30
0.0
 11
586.024
 21
217.448
 31
0.0
  0
LINE
  8
0
 62
     0
 10
586.024
 20
217.448
 30
0.0
 11
587.661
 21
217.169
 31
0.0
  0
LINE
  8
0
 62
     0
 10
587.661
 20
217.169
 30
0.0
 11
588.994
 21
216.943
 31
0.0
  0
LINE
  8
0
 62
     0
 10
588.994
 20
216.943
 30
0.0
 11
593.058
 21
216.59
 31
0.0
  0
LINE
  8
0
 62
     0
 10
593.058
 20
216.59
 30
0.0
 11
599.137
 21
216.443
 31
0.0
  0
LINE
  8
0
 62
     0
 10
599.137
 20
216.443
 30
0.0
 11
605.113
 21
216.673
 31
0.0
  0
LINE
  8
0
 62
     0
 10
605.113
 20
216.673
 30
0.0
 11
608.937
 21
217.023
 31
0.0
  0
LINE
  8
0
 62
     0
 10
608.937
 20
217.023
 30
0.0
 11
610.2
 21
217.221
 31
0.0
  0
LINE
  8
0
 62
     0
 10
610.2
 20
217.221
 30
0.0
 11
611.173
 21
217.376
 31
0.0
  0
LINE
  8
0
 62
     0
 10
611.173
 20
217.376
 30
0.0
 11
614.073
 21
217.988
 31
0.0
  0
LINE
  8
0
 62
     0
 10
614.073
 20
217.988
 30
0.0
 11
617.372
 21
218.928
 31
0.0
  0
LINE
  8
0
 62
     0
 10
617.372
 20
218.928
 30
0.0
 11
620.737
 21
220.074
 31
0.0
  0
LINE
  8
0
 62
     0
 10
620.737
 20
220.074
 30
0.0
 11
623.792
 21
221.128
 31
0.0
  0
LINE
  8
0
 62
     0
 10
623.792
 20
221.128
 30
0.0
 11
624.815
 21
221.463
 31
0.0
  0
LINE
  8
0
 62
     0
 10
624.815
 20
221.463
 30
0.0
 11
625.239
 21
221.605
 31
0.0
  0
LINE
  8
0
 62
     0
 10
625.239
 20
221.605
 30
0.0
 11
626.509
 21
222.042
 31
0.0
  0
LINE
  8
0
 62
     0
 10
626.509
 20
222.042
 30
0.0
 11
627.952
 21
222.554
 31
0.0
  0
LINE
  8
0
 62
     0
 10
627.952
 20
222.554
 30
0.0
 11
628.989
 21
222.946
 31
0.0
  0
LINE
  8
0
 62
     0
 10
628.989
 20
222.946
 30
0.0
 11
629.416
 21
223.124
 31
0.0
  0
LINE
  8
0
 62
     0
 10
629.416
 20
223.124
 30
0.0
 11
629.465
 21
223.159
 31
0.0
  0
LINE
  8
0
 62
     0
 10
629.465
 20
223.159
 30
0.0
 11
629.514
 21
223.195
 31
0.0
  0
LINE
  8
0
 62
     0
 10
629.514
 20
223.195
 30
0.0
 11
629.737
 21
223.311
 31
0.0
  0
LINE
  8
0
 62
     0
 10
629.737
 20
223.311
 30
0.0
 11
630.216
 21
223.53
 31
0.0
  0
LINE
  8
0
 62
     0
 10
630.216
 20
223.53
 30
0.0
 11
630.837
 21
223.788
 31
0.0
  0
LINE
  8
0
 62
     0
 10
630.837
 20
223.788
 30
0.0
 11
631.356
 21
223.991
 31
0.0
  0
LINE
  8
0
 62
     0
 10
631.356
 20
223.991
 30
0.0
 11
631.529
 21
224.054
 31
0.0
  0
LINE
  8
0
 62
     0
 10
631.529
 20
224.054
 30
0.0
 11
631.744
 21
224.134
 31
0.0
  0
LINE
  8
0
 62
     0
 10
631.744
 20
224.134
 30
0.0
 11
632.379
 21
224.409
 31
0.0
  0
LINE
  8
0
 62
     0
 10
632.379
 20
224.409
 30
0.0
 11
633.264
 21
224.853
 31
0.0
  0
LINE
  8
0
 62
     0
 10
633.264
 20
224.853
 30
0.0
 11
634.118
 21
225.356
 31
0.0
  0
LINE
  8
0
 62
     0
 10
634.118
 20
225.356
 30
0.0
 11
634.884
 21
225.892
 31
0.0
  0
LINE
  8
0
 62
     0
 10
634.884
 20
225.892
 30
0.0
 11
635.497
 21
226.432
 31
0.0
  0
LINE
  8
0
 62
     0
 10
635.497
 20
226.432
 30
0.0
 11
635.9
 21
226.948
 31
0.0
  0
LINE
  8
0
 62
     0
 10
635.9
 20
226.948
 30
0.0
 11
636.027
 21
227.409
 31
0.0
  0
LINE
  8
0
 62
     0
 10
636.027
 20
227.409
 30
0.0
 11
635.896
 21
227.726
 31
0.0
  0
LINE
  8
0
 62
     0
 10
635.896
 20
227.726
 30
0.0
 11
635.818
 21
227.79
 31
0.0
  0
LINE
  8
0
 62
     0
 10
635.818
 20
227.79
 30
0.0
 11
629.86
 21
232.757
 31
0.0
  0
LINE
  8
0
 62
     0
 10
629.86
 20
232.757
 30
0.0
 11
629.86
 21
232.757
 31
0.0
  0
LINE
  8
0
 62
     0
 10
629.86
 20
232.757
 30
0.0
 11
629.687
 21
232.897
 31
0.0
  0
LINE
  8
0
 62
     0
 10
629.687
 20
232.897
 30
0.0
 11
629.172
 21
233.288
 31
0.0
  0
LINE
  8
0
 62
     0
 10
629.172
 20
233.288
 30
0.0
 11
628.308
 21
233.9
 31
0.0
  0
LINE
  8
0
 62
     0
 10
628.308
 20
233.9
 30
0.0
 11
627.405
 21
234.503
 31
0.0
  0
LINE
  8
0
 62
     0
 10
627.405
 20
234.503
 30
0.0
 11
627.101
 21
234.696
 31
0.0
  0
LINE
  8
0
 62
     0
 10
627.101
 20
234.696
 30
0.0
 11
626.883
 21
234.836
 31
0.0
  0
LINE
  8
0
 62
     0
 10
626.883
 20
234.836
 30
0.0
 11
626.237
 21
235.267
 31
0.0
  0
LINE
  8
0
 62
     0
 10
626.237
 20
235.267
 30
0.0
 11
625.105
 21
236.047
 31
0.0
  0
LINE
  8
0
 62
     0
 10
625.105
 20
236.047
 30
0.0
 11
623.817
 21
236.958
 31
0.0
  0
LINE
  8
0
 62
     0
 10
623.817
 20
236.958
 30
0.0
 11
622.48
 21
237.92
 31
0.0
  0
LINE
  8
0
 62
     0
 10
622.48
 20
237.92
 30
0.0
 11
621.21
 21
238.851
 31
0.0
  0
LINE
  8
0
 62
     0
 10
621.21
 20
238.851
 30
0.0
 11
620.109
 21
239.673
 31
0.0
  0
LINE
  8
0
 62
     0
 10
620.109
 20
239.673
 30
0.0
 11
619.298
 21
240.305
 31
0.0
  0
LINE
  8
0
 62
     0
 10
619.298
 20
240.305
 30
0.0
 11
618.973
 21
240.566
 31
0.0
  0
LINE
  8
0
 62
     0
 10
618.973
 20
240.566
 30
0.0
 11
618.882
 21
240.666
 31
0.0
  0
LINE
  8
0
 62
     0
 10
618.882
 20
240.666
 30
0.0
 11
618.832
 21
240.72
 31
0.0
  0
LINE
  8
0
 62
     0
 10
618.832
 20
240.72
 30
0.0
 11
618.529
 21
240.978
 31
0.0
  0
LINE
  8
0
 62
     0
 10
618.529
 20
240.978
 30
0.0
 11
617.83
 21
241.538
 31
0.0
  0
LINE
  8
0
 62
     0
 10
617.83
 20
241.538
 30
0.0
 11
616.888
 21
242.272
 31
0.0
  0
LINE
  8
0
 62
     0
 10
616.888
 20
242.272
 30
0.0
 11
616.077
 21
242.892
 31
0.0
  0
LINE
  8
0
 62
     0
 10
616.077
 20
242.892
 30
0.0
 11
615.805
 21
243.096
 31
0.0
  0
LINE
  8
0
 62
     0
 10
615.805
 20
243.096
 30
0.0
 11
615.505
 21
243.321
 31
0.0
  0
LINE
  8
0
 62
     0
 10
615.505
 20
243.321
 30
0.0
 11
614.634
 21
244.038
 31
0.0
  0
LINE
  8
0
 62
     0
 10
614.634
 20
244.038
 30
0.0
 11
613.456
 21
245.092
 31
0.0
  0
LINE
  8
0
 62
     0
 10
613.456
 20
245.092
 30
0.0
 11
612.412
 21
246.131
 31
0.0
  0
LINE
  8
0
 62
     0
 10
612.412
 20
246.131
 30
0.0
 11
611.812
 21
246.79
 31
0.0
  0
LINE
  8
0
 62
     0
 10
611.812
 20
246.79
 30
0.0
 11
611.632
 21
247.023
 31
0.0
  0
LINE
  8
0
 62
     0
 10
611.632
 20
247.023
 30
0.0
 11
611.466
 21
247.237
 31
0.0
  0
LINE
  8
0
 62
     0
 10
611.466
 20
247.237
 30
0.0
 11
610.951
 21
247.861
 31
0.0
  0
LINE
  8
0
 62
     0
 10
610.951
 20
247.861
 30
0.0
 11
610.175
 21
248.75
 31
0.0
  0
LINE
  8
0
 62
     0
 10
610.175
 20
248.75
 30
0.0
 11
609.395
 21
249.585
 31
0.0
  0
LINE
  8
0
 62
     0
 10
609.395
 20
249.585
 30
0.0
 11
608.887
 21
250.096
 31
0.0
  0
LINE
  8
0
 62
     0
 10
608.887
 20
250.096
 30
0.0
 11
608.711
 21
250.257
 31
0.0
  0
LINE
  8
0
 62
     0
 10
608.711
 20
250.257
 30
0.0
 11
608.302
 21
250.631
 31
0.0
  0
LINE
  8
0
 62
     0
 10
608.302
 20
250.631
 30
0.0
 11
606.954
 21
251.664
 31
0.0
  0
LINE
  8
0
 62
     0
 10
606.954
 20
251.664
 30
0.0
 11
604.499
 21
253.395
 31
0.0
  0
LINE
  8
0
 62
     0
 10
604.499
 20
253.395
 30
0.0
 11
601.895
 21
255.075
 31
0.0
  0
LINE
  8
0
 62
     0
 10
601.895
 20
255.075
 30
0.0
 11
600.269
 21
256.042
 31
0.0
  0
LINE
  8
0
 62
     0
 10
600.269
 20
256.042
 30
0.0
 11
599.708
 21
256.326
 31
0.0
  0
LINE
  8
0
 62
     0
 10
599.708
 20
256.326
 30
0.0
 11
599.56
 21
256.402
 31
0.0
  0
LINE
  8
0
 62
     0
 10
599.56
 20
256.402
 30
0.0
 11
599.123
 21
256.64
 31
0.0
  0
LINE
  8
0
 62
     0
 10
599.123
 20
256.64
 30
0.0
 11
598.667
 21
256.919
 31
0.0
  0
LINE
  8
0
 62
     0
 10
598.667
 20
256.919
 30
0.0
 11
598.382
 21
257.132
 31
0.0
  0
LINE
  8
0
 62
     0
 10
598.382
 20
257.132
 30
0.0
 11
598.311
 21
257.242
 31
0.0
  0
LINE
  8
0
 62
     0
 10
598.311
 20
257.242
 30
0.0
 11
598.318
 21
257.248
 31
0.0
  0
LINE
  8
0
 62
     0
 10
598.318
 20
257.248
 30
0.0
 11
598.375
 21
257.303
 31
0.0
  0
LINE
  8
0
 62
     0
 10
598.375
 20
257.303
 30
0.0
 11
599.207
 21
257.535
 31
0.0
  0
LINE
  8
0
 62
     0
 10
599.207
 20
257.535
 30
0.0
 11
601.412
 21
258.035
 31
0.0
  0
LINE
  8
0
 62
     0
 10
601.412
 20
258.035
 30
0.0
 11
604.739
 21
258.709
 31
0.0
  0
LINE
  8
0
 62
     0
 10
604.739
 20
258.709
 30
0.0
 11
607.938
 21
259.318
 31
0.0
  0
LINE
  8
0
 62
     0
 10
607.938
 20
259.318
 30
0.0
 11
609.004
 21
259.514
 31
0.0
  0
LINE
  8
0
 62
     0
 10
609.004
 20
259.514
 30
0.0
 11
610.464
 21
259.782
 31
0.0
  0
LINE
  8
0
 62
     0
 10
610.464
 20
259.782
 30
0.0
 11
614.842
 21
260.609
 31
0.0
  0
LINE
  8
0
 62
     0
 10
614.842
 20
260.609
 30
0.0
 11
619.1
 21
261.458
 31
0.0
  0
LINE
  8
0
 62
     0
 10
619.1
 20
261.458
 30
0.0
 11
622.106
 21
262.129
 31
0.0
  0
LINE
  8
0
 62
     0
 10
622.106
 20
262.129
 30
0.0
 11
623.662
 21
262.529
 31
0.0
  0
LINE
  8
0
 62
     0
 10
623.662
 20
262.529
 30
0.0
 11
624.173
 21
262.686
 31
0.0
  0
LINE
  8
0
 62
     0
 10
624.173
 20
262.686
 30
0.0
 11
624.918
 21
262.9
 31
0.0
  0
LINE
  8
0
 62
     0
 10
624.918
 20
262.9
 30
0.0
 11
627.186
 21
263.446
 31
0.0
  0
LINE
  8
0
 62
     0
 10
627.186
 20
263.446
 30
0.0
 11
630.125
 21
263.978
 31
0.0
  0
LINE
  8
0
 62
     0
 10
630.125
 20
263.978
 30
0.0
 11
633.173
 21
264.338
 31
0.0
  0
LINE
  8
0
 62
     0
 10
633.173
 20
264.338
 30
0.0
 11
635.674
 21
264.53
 31
0.0
  0
LINE
  8
0
 62
     0
 10
635.674
 20
264.53
 30
0.0
 11
636.51
 21
264.575
 31
0.0
  0
LINE
  8
0
 62
     0
 10
636.51
 20
264.575
 30
0.0
 11
641.449
 21
264.206
 31
0.0
  0
LINE
  8
0
 62
     0
 10
641.449
 20
264.206
 30
0.0
 11
645.403
 21
263.569
 31
0.0
  0
LINE
  8
0
 62
     0
 10
645.403
 20
263.569
 30
0.0
 11
645.527
 21
263.55
 31
0.0
  0
LINE
  8
0
 62
     0
 10
645.527
 20
263.55
 30
0.0
 11
645.918
 21
263.626
 31
0.0
  0
LINE
  8
0
 62
     0
 10
645.918
 20
263.626
 30
0.0
 11
646.264
 21
264.118
 31
0.0
  0
LINE
  8
0
 62
     0
 10
646.264
 20
264.118
 30
0.0
 11
646.561
 21
265.222
 31
0.0
  0
LINE
  8
0
 62
     0
 10
646.561
 20
265.222
 30
0.0
 11
646.836
 21
266.638
 31
0.0
  0
LINE
  8
0
 62
     0
 10
646.836
 20
266.638
 30
0.0
 11
646.924
 21
267.111
 31
0.0
  0
LINE
  8
0
 62
     0
 10
646.924
 20
267.111
 30
0.0
 11
646.97
 21
267.351
 31
0.0
  0
LINE
  8
0
 62
     0
 10
646.97
 20
267.351
 30
0.0
 11
647.121
 21
268.066
 31
0.0
  0
LINE
  8
0
 62
     0
 10
647.121
 20
268.066
 30
0.0
 11
647.365
 21
269.098
 31
0.0
  0
LINE
  8
0
 62
     0
 10
647.365
 20
269.098
 30
0.0
 11
647.619
 21
270.086
 31
0.0
  0
LINE
  8
0
 62
     0
 10
647.619
 20
270.086
 30
0.0
 11
647.795
 21
270.701
 31
0.0
  0
LINE
  8
0
 62
     0
 10
647.795
 20
270.701
 30
0.0
 11
647.859
 21
270.902
 31
0.0
  0
LINE
  8
0
 62
     0
 10
647.859
 20
270.902
 30
0.0
 11
648.021
 21
271.416
 31
0.0
  0
LINE
  8
0
 62
     0
 10
648.021
 20
271.416
 30
0.0
 11
648.691
 21
272.945
 31
0.0
  0
LINE
  8
0
 62
     0
 10
648.691
 20
272.945
 30
0.0
 11
650.011
 21
275.609
 31
0.0
  0
LINE
  8
0
 62
     0
 10
650.011
 20
275.609
 30
0.0
 11
651.521
 21
278.32
 31
0.0
  0
LINE
  8
0
 62
     0
 10
651.521
 20
278.32
 30
0.0
 11
652.547
 21
279.976
 31
0.0
  0
LINE
  8
0
 62
     0
 10
652.547
 20
279.976
 30
0.0
 11
652.928
 21
280.498
 31
0.0
  0
ENDSEC
  0
EOF
